  0
SECTION
  2
HEADER
  9
$ACADVER
  1
AC1015
  9
$ACADMAINTVER
 70
     6
  9
$DWGCODEPAGE
  3
ANSI_1252
  9
$INSBASE
 10
0.0
 20
0.0
 30
0.0
  9
$EXTMIN
 10
-89.0
 20
-89.0
 30
0.0
  9
$EXTMAX
 10
89.0
 20
89.0
 30
0.0
  9
$LIMMIN
 10
0.0
 20
0.0
  9
$LIMMAX
 10
12.0
 20
9.0
  9
$ORTHOMODE
 70
     0
  9
$REGENMODE
 70
     1
  9
$FILLMODE
 70
     1
  9
$QTEXTMODE
 70
     0
  9
$MIRRTEXT
 70
     1
  9
$LTSCALE
 40
1.0
  9
$ATTMODE
 70
     1
  9
$TEXTSIZE
 40
0.2
  9
$TRACEWID
 40
0.05
  9
$TEXTSTYLE
  7
Standard
  9
$CLAYER
  8
0
  9
$CELTYPE
  6
ByLayer
  9
$CECOLOR
 62
   256
  9
$CELTSCALE
 40
1.0
  9
$DISPSILH
 70
     0
  9
$DIMSCALE
 40
1.0
  9
$DIMASZ
 40
0.18
  9
$DIMEXO
 40
0.0625
  9
$DIMDLI
 40
0.38
  9
$DIMRND
 40
0.0
  9
$DIMDLE
 40
0.0
  9
$DIMEXE
 40
0.18
  9
$DIMTP
 40
0.0
  9
$DIMTM
 40
0.0
  9
$DIMTXT
 40
0.18
  9
$DIMCEN
 40
0.09
  9
$DIMTSZ
 40
0.0
  9
$DIMTOL
 70
     0
  9
$DIMLIM
 70
     0
  9
$DIMTIH
 70
     1
  9
$DIMTOH
 70
     1
  9
$DIMSE1
 70
     0
  9
$DIMSE2
 70
     0
  9
$DIMTAD
 70
     0
  9
$DIMZIN
 70
     0
  9
$DIMBLK
  1

  9
$DIMASO
 70
     1
  9
$DIMSHO
 70
     1
  9
$DIMPOST
  1

  9
$DIMAPOST
  1

  9
$DIMALT
 70
     0
  9
$DIMALTD
 70
     2
  9
$DIMALTF
 40
25.4
  9
$DIMLFAC
 40
1.0
  9
$DIMTOFL
 70
     0
  9
$DIMTVP
 40
0.0
  9
$DIMTIX
 70
     0
  9
$DIMSOXD
 70
     0
  9
$DIMSAH
 70
     0
  9
$DIMBLK1
  1

  9
$DIMBLK2
  1

  9
$DIMSTYLE
  2
Standard
  9
$DIMCLRD
 70
     0
  9
$DIMCLRE
 70
     0
  9
$DIMCLRT
 70
     0
  9
$DIMTFAC
 40
1.0
  9
$DIMGAP
 40
0.09
  9
$DIMJUST
 70
     0
  9
$DIMSD1
 70
     0
  9
$DIMSD2
 70
     0
  9
$DIMTOLJ
 70
     1
  9
$DIMTZIN
 70
     0
  9
$DIMALTZ
 70
     0
  9
$DIMALTTZ
 70
     0
  9
$DIMUPT
 70
     0
  9
$DIMDEC
 70
     4
  9
$DIMTDEC
 70
     4
  9
$DIMALTU
 70
     2
  9
$DIMALTTD
 70
     2
  9
$DIMTXSTY
  7
Standard
  9
$DIMAUNIT
 70
     0
  9
$DIMADEC
 70
     0
  9
$DIMALTRND
 40
0.0
  9
$DIMAZIN
 70
     0
  9
$DIMDSEP
 70
    46
  9
$DIMATFIT
 70
     3
  9
$DIMFRAC
 70
     0
  9
$DIMLDRBLK
  1

  9
$DIMLUNIT
 70
     2
  9
$DIMLWD
 70
    -2
  9
$DIMLWE
 70
    -2
  9
$DIMTMOVE
 70
     0
  9
$LUNITS
 70
     2
  9
$LUPREC
 70
     4
  9
$SKETCHINC
 40
0.1
  9
$FILLETRAD
 40
0.5
  9
$AUNITS
 70
     0
  9
$AUPREC
 70
     0
  9
$MENU
  1
.
  9
$ELEVATION
 40
0.0
  9
$PELEVATION
 40
0.0
  9
$THICKNESS
 40
0.0
  9
$LIMCHECK
 70
     0
  9
$CHAMFERA
 40
0.5
  9
$CHAMFERB
 40
0.5
  9
$CHAMFERC
 40
1.0
  9
$CHAMFERD
 40
0.0
  9
$SKPOLY
 70
     0
  9
$TDCREATE
 40
2453657.337240162
  9
$TDUCREATE
 40
2453657.295573495
  9
$TDUPDATE
 40
2453657.337240173
  9
$TDUUPDATE
 40
2453657.295573507
  9
$TDINDWG
 40
0.0000000116
  9
$TDUSRTIMER
 40
0.0000000116
  9
$USRTIMER
 70
     1
  9
$ANGBASE
 50
0.0
  9
$ANGDIR
 70
     0
  9
$PDMODE
 70
     0
  9
$PDSIZE
 40
0.0
  9
$PLINEWID
 40
0.0
  9
$SPLFRAME
 70
     0
  9
$SPLINETYPE
 70
     6
  9
$SPLINESEGS
 70
     8
  9
$HANDSEED
  5
1A3
  9
$SURFTAB1
 70
     6
  9
$SURFTAB2
 70
     6
  9
$SURFTYPE
 70
     6
  9
$SURFU
 70
     6
  9
$SURFV
 70
     6
  9
$UCSBASE
  2

  9
$UCSNAME
  2

  9
$UCSORG
 10
0.0
 20
0.0
 30
0.0
  9
$UCSXDIR
 10
1.0
 20
0.0
 30
0.0
  9
$UCSYDIR
 10
0.0
 20
1.0
 30
0.0
  9
$UCSORTHOREF
  2

  9
$UCSORTHOVIEW
 70
     0
  9
$UCSORGTOP
 10
0.0
 20
0.0
 30
0.0
  9
$UCSORGBOTTOM
 10
0.0
 20
0.0
 30
0.0
  9
$UCSORGLEFT
 10
0.0
 20
0.0
 30
0.0
  9
$UCSORGRIGHT
 10
0.0
 20
0.0
 30
0.0
  9
$UCSORGFRONT
 10
0.0
 20
0.0
 30
0.0
  9
$UCSORGBACK
 10
0.0
 20
0.0
 30
0.0
  9
$PUCSBASE
  2

  9
$PUCSNAME
  2

  9
$PUCSORG
 10
0.0
 20
0.0
 30
0.0
  9
$PUCSXDIR
 10
1.0
 20
0.0
 30
0.0
  9
$PUCSYDIR
 10
0.0
 20
1.0
 30
0.0
  9
$PUCSORTHOREF
  2

  9
$PUCSORTHOVIEW
 70
     0
  9
$PUCSORGTOP
 10
0.0
 20
0.0
 30
0.0
  9
$PUCSORGBOTTOM
 10
0.0
 20
0.0
 30
0.0
  9
$PUCSORGLEFT
 10
0.0
 20
0.0
 30
0.0
  9
$PUCSORGRIGHT
 10
0.0
 20
0.0
 30
0.0
  9
$PUCSORGFRONT
 10
0.0
 20
0.0
 30
0.0
  9
$PUCSORGBACK
 10
0.0
 20
0.0
 30
0.0
  9
$USERI1
 70
     0
  9
$USERI2
 70
     0
  9
$USERI3
 70
     0
  9
$USERI4
 70
     0
  9
$USERI5
 70
     0
  9
$USERR1
 40
13.01
  9
$USERR2
 40
0.0
  9
$USERR3
 40
0.0
  9
$USERR4
 40
0.0
  9
$USERR5
 40
0.0
  9
$WORLDVIEW
 70
     1
  9
$SHADEDGE
 70
     3
  9
$SHADEDIF
 70
    70
  9
$TILEMODE
 70
     1
  9
$MAXACTVP
 70
    64
  9
$PINSBASE
 10
0.0
 20
0.0
 30
0.0
  9
$PLIMCHECK
 70
     0
  9
$PEXTMIN
 10
1.00000000000000E+20
 20
1.00000000000000E+20
 30
1.00000000000000E+20
  9
$PEXTMAX
 10
-1.00000000000000E+20
 20
-1.00000000000000E+20
 30
-1.00000000000000E+20
  9
$PLIMMIN
 10
0.0
 20
0.0
  9
$PLIMMAX
 10
12.0
 20
9.0
  9
$UNITMODE
 70
     0
  9
$VISRETAIN
 70
     1
  9
$PLINEGEN
 70
     0
  9
$PSLTSCALE
 70
     1
  9
$TREEDEPTH
 70
  3020
  9
$CMLSTYLE
  2
Standard
  9
$CMLJUST
 70
     0
  9
$CMLSCALE
 40
1.0
  9
$PROXYGRAPHICS
 70
     1
  9
$MEASUREMENT
 70
     1
  9
$CELWEIGHT
370
    -1
  9
$ENDCAPS
280
     0
  9
$JOINSTYLE
280
     0
  9
$LWDISPLAY
290
     0
  9
$INSUNITS
 70
     1
  9
$HYPERLINKBASE
  1

  9
$STYLESHEET
  1

  9
$XEDIT
290
     1
  9
$CEPSNTYPE
380
     0
  9
$PSTYLEMODE
290
     0
  9
$FINGERPRINTGUID
  2
{FAEB1C30-E019-11D5-929B-00C0DF256EC4}
  9
$VERSIONGUID
  2
{FAEB1C32-E019-11D5-929B-00C0DF256EC4}
  9
$EXTNAMES
290
     1
  9
$PSVPSCALE
 40
0.0
  9
$OLESTARTUP
290
     0
  0
ENDSEC
  0
SECTION
  2
CLASSES
  0
CLASS
  1
ACDBDICTIONARYWDFLT
  2
AcDbDictionaryWithDefault
  3
ObjectDBX Classes
 90
        0
280
     0
281
     0
  0
CLASS
  1
TABLESTYLE
  2
AcDbTableStyle
  3
ObjectDBX Classes
 90
     2047
280
     0
281
     0
  0
CLASS
  1
DICTIONARYVAR
  2
AcDbDictionaryVar
  3
ObjectDBX Classes
 90
        0
280
     0
281
     0
  0
CLASS
  1

  2
exOdDbCircle
  3

 90
        0
280
     0
281
     1
  0
CLASS
  1
ACDBPLACEHOLDER
  2
AcDbPlaceHolder
  3
ObjectDBX Classes
 90
        0
280
     0
281
     0
  0
CLASS
  1
LAYOUT
  2
AcDbLayout
  3
ObjectDBX Classes
 90
        0
280
     0
281
     0
  0
ENDSEC
  0
SECTION
  2
TABLES
  0
TABLE
  2
VPORT
  5
8
330
0
100
AcDbSymbolTable
 70
     2
  0
VPORT
  5
29
330
8
100
AcDbSymbolTableRecord
100
AcDbViewportTableRecord
  2
*Active
 70
     0
 10
0.0
 20
0.0
 11
1.0
 21
1.0
 12
0.0
 22
0.0
 13
0.0
 23
0.0
 14
0.5
 24
0.5
 15
0.5
 25
0.5
 16
0.0
 26
0.0
 36
1.0
 17
0.0
 27
0.0
 37
0.0
 40
195.8
 41
1.60267857142857
 42
50.0
 43
0.0
 44
0.0
 50
0.0
 51
0.0
 71
     0
 72
   100
 73
     1
 74
     3
 75
     0
 76
     0
 77
     0
 78
     0
281
     0
 65
     1
110
0.0
120
0.0
130
0.0
111
1.0
121
0.0
131
0.0
112
0.0
122
1.0
132
0.0
 79
     0
146
0.0
  0
ENDTAB
  0
TABLE
  2
LTYPE
  5
5
330
0
100
AcDbSymbolTable
 70
     8
  0
LTYPE
  5
14
330
5
100
AcDbSymbolTableRecord
100
AcDbLinetypeTableRecord
  2
ByBlock
 70
     0
  3

 72
    65
 73
     0
 40
0.0
  0
LTYPE
  5
15
330
5
100
AcDbSymbolTableRecord
100
AcDbLinetypeTableRecord
  2
ByLayer
 70
     0
  3

 72
    65
 73
     0
 40
0.0
  0
LTYPE
  5
16
330
5
100
AcDbSymbolTableRecord
100
AcDbLinetypeTableRecord
  2
Continuous
 70
     0
  3
Solid line
 72
    65
 73
     0
 40
0.0
  0
LTYPE
  5
2E
330
5
100
AcDbSymbolTableRecord
100
AcDbLinetypeTableRecord
  2
DASHED
 70
     0
  3
Dashed
 72
    65
 73
     2
 40
15.0
 49
7.0
 74
     0
 49
-8.0
 74
     0
  0
LTYPE
  5
2F
330
5
100
AcDbSymbolTableRecord
100
AcDbLinetypeTableRecord
  2
DOTTED
 70
     0
  3
Dotted
 72
    65
 73
     2
 40
1.0
 49
0.0
 74
     0
 49
-1.0
 74
     0
  0
LTYPE
  5
30
330
5
100
AcDbSymbolTableRecord
100
AcDbLinetypeTableRecord
  2
DOT_CENTER
 70
     0
  3
Dot_Center
 72
    65
 73
     4
 40
14.0
 49
12.0
 74
     0
 49
-1.0
 74
     0
 49
0.0
 74
     0
 49
-1.0
 74
     0
  0
LTYPE
  5
31
330
5
100
AcDbSymbolTableRecord
100
AcDbLinetypeTableRecord
  2
LONG_DASHED
 70
     0
  3
Long_Dashed
 72
    65
 73
     2
 40
15.0
 49
10.0
 74
     0
 49
-5.0
 74
     0
  0
LTYPE
  5
32
330
5
100
AcDbSymbolTableRecord
100
AcDbLinetypeTableRecord
  2
DASH_CENTER
 70
     0
  3
Dash_Center
 72
    65
 73
     4
 40
14.0
 49
11.0
 74
     0
 49
-1.0
 74
     0
 49
1.0
 74
     0
 49
-1.0
 74
     0
  0
LTYPE
  5
33
330
5
100
AcDbSymbolTableRecord
100
AcDbLinetypeTableRecord
  2
PHANTOM
 70
     0
  3
Phantom
 72
    65
 73
     6
 40
13.0
 49
10.0
 74
     0
 49
-1.0
 74
     0
 49
0.0
 74
     0
 49
-1.0
 74
     0
 49
0.0
 74
     0
 49
-1.0
 74
     0
  0
LTYPE
  5
34
330
5
100
AcDbSymbolTableRecord
100
AcDbLinetypeTableRecord
  2
CENTER_DASH_DASH
 70
     0
  3
Center_Dash_Dash
 72
    65
 73
     6
 40
14.0
 49
9.0
 74
     0
 49
-1.0
 74
     0
 49
1.0
 74
     0
 49
-1.0
 74
     0
 49
1.0
 74
     0
 49
-1.0
 74
     0
  0
ENDTAB
  0
TABLE
  2
LAYER
  5
2
330
0
100
AcDbSymbolTable
 70
     2
  0
LAYER
  5
10
330
2
100
AcDbSymbolTableRecord
100
AcDbLayerTableRecord
  2
0
 70
     0
 62
     7
  6
Continuous
370
    -3
390
F
  0
LAYER
  5
35
330
2
100
AcDbSymbolTableRecord
100
AcDbLayerTableRecord
  2
1
 70
     0
 62
     7
  6
Continuous
370
    -3
390
F
  0
ENDTAB
  0
TABLE
  2
STYLE
  5
3
330
0
100
AcDbSymbolTable
 70
     1
  0
STYLE
  5
11
330
3
100
AcDbSymbolTableRecord
100
AcDbTextStyleTableRecord
  2
Standard
 70
     0
 40
0.0
 41
1.0
 50
0.0
 71
     0
 42
0.2
  3
txt
  4

  0
ENDTAB
  0
TABLE
  2
VIEW
  5
6
330
0
100
AcDbSymbolTable
 70
     0
  0
ENDTAB
  0
TABLE
  2
UCS
  5
7
330
0
100
AcDbSymbolTable
 70
     0
  0
ENDTAB
  0
TABLE
  2
APPID
  5
9
330
0
100
AcDbSymbolTable
 70
     1
  0
APPID
  5
12
330
9
100
AcDbSymbolTableRecord
100
AcDbRegAppTableRecord
  2
ACAD
 70
     0
  0
ENDTAB
  0
TABLE
  2
DIMSTYLE
  5
A
330
0
100
AcDbSymbolTable
 70
     1
100
AcDbDimStyleTable
  0
DIMSTYLE
105
27
330
A
100
AcDbSymbolTableRecord
100
AcDbDimStyleTableRecord
  2
Standard
 70
     0
340
11
  0
ENDTAB
  0
TABLE
  2
BLOCK_RECORD
  5
1
330
0
100
AcDbSymbolTable
 70
     1
  0
BLOCK_RECORD
  5
1F
330
1
100
AcDbSymbolTableRecord
100
AcDbBlockTableRecord
  2
*Model_Space
340
22
  0
BLOCK_RECORD
  5
1B
330
1
100
AcDbSymbolTableRecord
100
AcDbBlockTableRecord
  2
*Paper_Space
340
1E
  0
BLOCK_RECORD
  5
23
330
1
100
AcDbSymbolTableRecord
100
AcDbBlockTableRecord
  2
*Paper_Space0
340
26
  0
ENDTAB
  0
ENDSEC
  0
SECTION
  2
BLOCKS
  0
BLOCK
  5
20
330
1F
100
AcDbEntity
  8
0
100
AcDbBlockBegin
  2
*Model_Space
 70
     0
 71
     0
 10
0.0
 20
0.0
 30
0.0
  3
*Model_Space
  1

  0
ENDBLK
  5
21
330
1F
100
AcDbEntity
  8
0
100
AcDbBlockEnd
  0
BLOCK
  5
1C
330
1B
100
AcDbEntity
 67
     1
  8
0
100
AcDbBlockBegin
  2
*Paper_Space
 70
     0
 71
     0
 10
0.0
 20
0.0
 30
0.0
  3
*Paper_Space
  1

  0
ENDBLK
  5
1D
330
1B
100
AcDbEntity
 67
     1
  8
0
100
AcDbBlockEnd
  0
BLOCK
  5
24
330
23
100
AcDbEntity
  8
0
100
AcDbBlockBegin
  2
*Paper_Space0
 70
     0
 71
     0
 10
0.0
 20
0.0
 30
0.0
  3
*Paper_Space0
  1

  0
ENDBLK
  5
25
330
23
100
AcDbEntity
  8
0
100
AcDbBlockEnd
  0
ENDSEC
  0
SECTION
  2
ENTITIES
  0
LINE
  5
36
330
1F
100
AcDbEntity
  8
1
  6
Continuous
 62
     7
100
AcDbLine
 10
0.0
 20
-89.0
 30
0.0
 11
0.0
 21
-79.0
 31
0.0
  0
LINE
  5
37
330
1F
100
AcDbEntity
  8
1
  6
Continuous
 62
     7
100
AcDbLine
 10
-7.75686110454158
 20
-88.66132813016536
 30
0.0
 11
-7.10319303393414
 21
-81.18986789447727
 31
0.0
  0
LINE
  5
38
330
1F
100
AcDbEntity
  8
1
  6
Continuous
 62
     7
100
AcDbLine
 10
-6.20832616322715
 20
-88.78320047312437
 30
0.0
 11
-5.85954379450652
 21
-83.79538022182524
 31
0.0
  0
LINE
  5
39
330
1F
100
AcDbEntity
  8
1
  6
Continuous
 62
     7
100
AcDbLine
 10
-4.657900105622
 20
-88.87802859315708
 30
0.0
 11
-4.39622032440728
 21
-83.88488091938422
 31
0.0
  0
LINE
  5
3A
330
1F
100
AcDbEntity
  8
1
  6
Continuous
 62
     7
100
AcDbLine
 10
-3.10605520652259
 20
-88.94578360469953
 30
0.0
 11
-2.93155772301008
 21
-83.94882946960405
 31
0.0
  0
LINE
  5
3B
330
1F
100
AcDbEntity
  8
1
  6
Continuous
 62
     7
100
AcDbLine
 10
-1.55326417291823
 20
-88.98644486891882
 30
0.0
 11
-1.46600214073181
 21
-83.98720639313687
 31
0.0
  0
LINE
  5
3C
330
1F
100
AcDbEntity
  8
1
  6
Continuous
 62
     7
100
AcDbLine
 10
-13.92266738858055
 20
-87.90426231296728
 30
0.0
 11
-13.14049506337939
 21
-82.96582060999158
 31
0.0
  0
LINE
  5
3D
330
1F
100
AcDbEntity
  8
1
  6
Continuous
 62
     7
100
AcDbLine
 10
-12.38640598544583
 20
-88.13385811799978
 30
0.0
 11
-11.6905404806455
 21
-83.18251777429192
 31
0.0
  0
LINE
  5
3E
330
1F
100
AcDbEntity
  8
1
  6
Continuous
 62
     7
100
AcDbLine
 10
-10.84637156305813
 20
-88.33660749607768
 30
0.0
 11
-10.23702484603239
 21
-83.37387673787107
 31
0.0
  0
LINE
  5
3F
330
1F
100
AcDbEntity
  8
1
  6
Continuous
 62
     7
100
AcDbLine
 10
-9.30303323082116
 20
-88.51244868777634
 30
0.0
 11
-8.78039091448289
 21
-83.53983921093497
 31
0.0
  0
LINE
  5
40
330
1F
100
AcDbEntity
  8
1
  6
Continuous
 62
     7
100
AcDbLine
 10
-15.4546878123568
 20
-87.64789001808651
 30
0.0
 11
-13.7182060356875
 21
-77.79981248796443
 31
0.0
  0
LINE
  5
41
330
1F
100
AcDbEntity
  8
1
  6
Continuous
 62
     7
100
AcDbLine
 10
-23.03489501412434
 20
-85.96739853972709
 30
0.0
 11
-21.09375217585544
 21
-78.72295484255908
 31
0.0
  0
LINE
  5
42
330
1F
100
AcDbEntity
  8
1
  6
Continuous
 62
     7
100
AcDbLine
 10
-21.53104870837043
 20
-86.35631963856369
 30
0.0
 11
-20.32143923037209
 21
-81.5048410071837
 31
0.0
  0
LINE
  5
43
330
1F
100
AcDbEntity
  8
1
  6
Continuous
 62
     7
100
AcDbLine
 10
-20.02064383660398
 20
-86.71893576588594
 30
0.0
 11
-18.89588856488466
 21
-81.84708544195976
 31
0.0
  0
LINE
  5
44
330
1F
100
AcDbEntity
  8
1
  6
Continuous
 62
     7
100
AcDbLine
 10
-18.50414048278058
 20
-87.05513646530871
 30
0.0
 11
-17.46458202869178
 21
-82.16439846163968
 31
0.0
  0
LINE
  5
45
330
1F
100
AcDbEntity
  8
1
  6
Continuous
 62
     7
100
AcDbLine
 10
-16.98200058851249
 20
-87.3648193268421
 30
0.0
 11
-16.02795561162976
 21
-82.45668340960378
 31
0.0
  0
LINE
  5
46
330
1F
100
AcDbEntity
  8
1
  6
Continuous
 62
     7
100
AcDbLine
 10
-28.97556574668695
 20
-84.15115322833921
 30
0.0
 11
-27.34772497440116
 21
-79.42356035034261
 31
0.0
  0
LINE
  5
47
330
1F
100
AcDbEntity
  8
1
  6
Continuous
 62
     7
100
AcDbLine
 10
-27.50251249937033
 20
-84.64402995026869
 30
0.0
 11
-25.95742752749559
 21
-79.88874736879291
 31
0.0
  0
LINE
  5
48
330
1F
100
AcDbEntity
  8
1
  6
Continuous
 62
     7
100
AcDbLine
 10
-26.02108172032357
 20
-85.11112328071017
 30
0.0
 11
-24.55922319670989
 21
-80.329599500895
 31
0.0
  0
LINE
  5
49
330
1F
100
AcDbEntity
  8
1
  6
Continuous
 62
     7
100
AcDbLine
 10
-24.53172466771293
 20
-85.5522909385104
 30
0.0
 11
-23.15353788862793
 21
-80.74598245881879
 31
0.0
  0
LINE
  5
4A
330
1F
100
AcDbEntity
  8
1
  6
Continuous
 62
     7
100
AcDbLine
 10
-30.43979275598451
 20
-83.63264324994584
 30
0.0
 11
-27.01959132272782
 21
-74.23571704208676
 31
0.0
  0
LINE
  5
4B
330
1F
100
AcDbEntity
  8
1
  6
Continuous
 62
     7
100
AcDbLine
 10
-37.61302529492225
 20
-80.66139304626185
 30
0.0
 11
-34.443388331867
 21
-73.86408464348698
 31
0.0
  0
LINE
  5
4C
330
1F
100
AcDbEntity
  8
1
  6
Continuous
 62
     7
100
AcDbLine
 10
-36.19956123374622
 20
-81.30554573019148
 30
0.0
 11
-34.16587801836721
 21
-76.73781844197848
 31
0.0
  0
LINE
  5
4D
330
1F
100
AcDbEntity
  8
1
  6
Continuous
 62
     7
100
AcDbLine
 10
-34.77507043554536
 20
-81.92493195726719
 30
0.0
 11
-32.821414793099
 21
-77.32240769000499
 31
0.0
  0
LINE
  5
4E
330
1F
100
AcDbEntity
  8
1
  6
Continuous
 62
     7
100
AcDbLine
 10
-33.33998681401616
 20
-82.51936305644408
 30
0.0
 11
-31.46695384693661
 21
-77.88344378361015
 31
0.0
  0
LINE
  5
4F
330
1F
100
AcDbEntity
  8
1
  6
Continuous
 62
     7
100
AcDbLine
 10
-31.89474750953172
 20
-83.08865795825095
 30
0.0
 11
-30.10290776180522
 21
-78.42075582576494
 31
0.0
  0
LINE
  5
50
330
1F
100
AcDbEntity
  8
1
  6
Continuous
 62
     7
100
AcDbLine
 10
-43.14805620192399
 20
-77.84115393540624
 30
0.0
 11
-40.72400810069231
 21
-73.46805539970926
 31
0.0
  0
LINE
  5
51
330
1F
100
AcDbEntity
  8
1
  6
Continuous
 62
     7
100
AcDbLine
 10
-41.78296908794428
 20
-78.58233576444451
 30
0.0
 11
-39.43561127401482
 21
-74.16759780014988
 31
0.0
  0
LINE
  5
52
330
1F
100
AcDbEntity
  8
1
  6
Continuous
 62
     7
100
AcDbLine
 10
-40.40515447681966
 20
-79.29958065276475
 30
0.0
 11
-38.13520197812193
 21
-74.84454803182292
 31
0.0
  0
LINE
  5
53
330
1F
100
AcDbEntity
  8
1
  6
Continuous
 62
     7
100
AcDbLine
 10
-39.01503206422789
 20
-79.99267012062587
 30
0.0
 11
-36.8231763302825
 21
-75.49869988913004
 31
0.0
  0
LINE
  5
54
330
1F
100
AcDbEntity
  8
1
  6
Continuous
 62
     7
100
AcDbLine
 10
-44.49999999999999
 20
-77.07626093681503
 30
0.0
 11
-39.49999999999999
 21
-68.41600689897065
 31
0.0
  0
LINE
  5
55
330
1F
100
AcDbEntity
  8
1
  6
Continuous
 62
     7
100
AcDbLine
 10
-51.0483028352431
 20
-72.90453194172028
 30
0.0
 11
-46.74647956261025
 21
-66.76089160955284
 31
0.0
  0
LINE
  5
56
330
1F
100
AcDbEntity
  8
1
  6
Continuous
 62
     7
100
AcDbLine
 10
-49.76816840889646
 20
-73.78434395739872
 30
0.0
 11
-46.97220389154273
 21
-69.6391560946235
 31
0.0
  0
LINE
  5
57
330
1F
100
AcDbEntity
  8
1
  6
Continuous
 62
     7
100
AcDbLine
 10
-48.47287411633741
 20
-74.64168054714274
 30
0.0
 11
-45.74967894126227
 21
-70.44832770741561
 31
0.0
  0
LINE
  5
58
330
1F
100
AcDbEntity
  8
1
  6
Continuous
 62
     7
100
AcDbLine
 10
-47.16281451675524
 20
-75.47628055792191
 30
0.0
 11
-44.51321819558921
 21
-71.23604007713978
 31
0.0
  0
LINE
  5
59
330
1F
100
AcDbEntity
  8
1
  6
Continuous
 62
     7
100
AcDbLine
 10
-45.83838866699482
 20
-76.28788976248799
 30
0.0
 11
-43.26319829244455
 21
-72.00205325897744
 31
0.0
  0
LINE
  5
5A
330
1F
100
AcDbEntity
  8
1
  6
Continuous
 62
     7
100
AcDbLine
 10
-56.00951480343554
 20
-69.16599056967041
 30
0.0
 11
-52.86291284818635
 21
-65.28026076238555
 31
0.0
  0
LINE
  5
5B
330
1F
100
AcDbEntity
  8
1
  6
Continuous
 62
     7
100
AcDbLine
 10
-54.79387130398359
 20
-70.13295707099826
 30
0.0
 11
-51.7155639273553
 21
-66.19290330296465
 31
0.0
  0
LINE
  5
5C
330
1F
100
AcDbEntity
  8
1
  6
Continuous
 62
     7
100
AcDbLine
 10
-53.5615370605323
 20
-71.07856039420908
 30
0.0
 11
-50.55246194477206
 21
-67.08538284397261
 31
0.0
  0
LINE
  5
5D
330
1F
100
AcDbEntity
  8
1
  6
Continuous
 62
     7
100
AcDbLine
 10
-52.3128874540301
 20
-72.00251249937034
 30
0.0
 11
-49.37396119256774
 21
-67.95742752749558
 31
0.0
  0
LINE
  5
5E
330
1F
100
AcDbEntity
  8
1
  6
Continuous
 62
     7
100
AcDbLine
 10
-57.20809726210199
 20
-68.17795543758905
 30
0.0
 11
-50.78022116523659
 21
-60.51751100639926
 31
0.0
  0
LINE
  5
5F
330
1F
100
AcDbEntity
  8
1
  6
Continuous
 62
     7
100
AcDbLine
 10
-62.93250352560271
 20
-62.93250352560273
 30
0.0
 11
-57.62920266670362
 21
-57.62920266670363
 31
0.0
  0
LINE
  5
60
330
1F
100
AcDbEntity
  8
1
  6
Continuous
 62
     7
100
AcDbLine
 10
-61.82459497085075
 20
-64.02124223013995
 30
0.0
 11
-58.35130311855576
 21
-60.4245432284467
 31
0.0
  0
LINE
  5
61
330
1F
100
AcDbEntity
  8
1
  6
Continuous
 62
     7
100
AcDbLine
 10
-60.69785404556235
 20
-65.09047944410618
 30
0.0
 11
-57.28786224524987
 21
-61.43371093601033
 31
0.0
  0
LINE
  5
62
330
1F
100
AcDbEntity
  8
1
  6
Continuous
 62
     7
100
AcDbLine
 10
-59.55262396593837
 20
-66.1398894674881
 30
0.0
 11
-56.20697093414408
 21
-62.42416534010113
 31
0.0
  0
LINE
  5
63
330
1F
100
AcDbEntity
  8
1
  6
Continuous
 62
     7
100
AcDbLine
 10
-58.38925358015513
 20
-67.16915263982671
 30
0.0
 11
-55.1089584352026
 21
-63.39560473871285
 31
0.0
  0
LINE
  5
64
330
1F
100
AcDbEntity
  8
1
  6
Continuous
 62
     7
100
AcDbLine
 10
-67.16915263982671
 20
-58.38925358015517
 30
0.0
 11
-63.39560473871284
 21
-55.10895843520262
 31
0.0
  0
LINE
  5
65
330
1F
100
AcDbEntity
  8
1
  6
Continuous
 62
     7
100
AcDbLine
 10
-66.13988946748809
 20
-59.55262396593839
 30
0.0
 11
-62.42416534010111
 21
-56.2069709341441
 31
0.0
  0
LINE
  5
66
330
1F
100
AcDbEntity
  8
1
  6
Continuous
 62
     7
100
AcDbLine
 10
-65.09047944410617
 20
-60.69785404556237
 30
0.0
 11
-61.43371093601031
 21
-57.28786224524989
 31
0.0
  0
LINE
  5
67
330
1F
100
AcDbEntity
  8
1
  6
Continuous
 62
     7
100
AcDbLine
 10
-64.02124223013995
 20
-61.82459497085078
 30
0.0
 11
-60.42454322844669
 21
-58.35130311855578
 31
0.0
  0
LINE
  5
68
330
1F
100
AcDbEntity
  8
1
  6
Continuous
 62
     7
100
AcDbLine
 10
-68.17795543758903
 20
-57.20809726210199
 30
0.0
 11
-60.51751100639925
 21
-50.7802211652366
 31
0.0
  0
LINE
  5
69
330
1F
100
AcDbEntity
  8
1
  6
Continuous
 62
     7
100
AcDbLine
 10
-72.90453194172025
 20
-51.04830283524311
 30
0.0
 11
-66.76089160955283
 21
-46.74647956261026
 31
0.0
  0
LINE
  5
6A
330
1F
100
AcDbEntity
  8
1
  6
Continuous
 62
     7
100
AcDbLine
 10
-72.00251249937033
 20
-52.31288745403011
 30
0.0
 11
-67.95742752749557
 21
-49.37396119256774
 31
0.0
  0
LINE
  5
6B
330
1F
100
AcDbEntity
  8
1
  6
Continuous
 62
     7
100
AcDbLine
 10
-71.07856039420906
 20
-53.5615370605323
 30
0.0
 11
-67.0853828439726
 21
-50.55246194477206
 31
0.0
  0
LINE
  5
6C
330
1F
100
AcDbEntity
  8
1
  6
Continuous
 62
     7
100
AcDbLine
 10
-70.13295707099824
 20
-54.79387130398358
 30
0.0
 11
-66.19290330296464
 21
-51.7155639273553
 31
0.0
  0
LINE
  5
6D
330
1F
100
AcDbEntity
  8
1
  6
Continuous
 62
     7
100
AcDbLine
 10
-69.1659905696704
 20
-56.00951480343553
 30
0.0
 11
-65.28026076238555
 21
-52.86291284818634
 31
0.0
  0
LINE
  5
6E
330
1F
100
AcDbEntity
  8
1
  6
Continuous
 62
     7
100
AcDbLine
 10
-76.28788976248799
 20
-45.83838866699483
 30
0.0
 11
-72.00205325897743
 21
-43.26319829244456
 31
0.0
  0
LINE
  5
6F
330
1F
100
AcDbEntity
  8
1
  6
Continuous
 62
     7
100
AcDbLine
 10
-75.47628055792191
 20
-47.16281451675525
 30
0.0
 11
-71.23604007713978
 21
-44.51321819558922
 31
0.0
  0
LINE
  5
70
330
1F
100
AcDbEntity
  8
1
  6
Continuous
 62
     7
100
AcDbLine
 10
-74.64168054714273
 20
-48.47287411633741
 30
0.0
 11
-70.44832770741561
 21
-45.74967894126228
 31
0.0
  0
LINE
  5
71
330
1F
100
AcDbEntity
  8
1
  6
Continuous
 62
     7
100
AcDbLine
 10
-73.7843439573987
 20
-49.76816840889647
 30
0.0
 11
-69.6391560946235
 21
-46.97220389154273
 31
0.0
  0
LINE
  5
72
330
1F
100
AcDbEntity
  8
1
  6
Continuous
 62
     7
100
AcDbLine
 10
-77.07626093681503
 20
-44.5
 30
0.0
 11
-68.41600689897064
 21
-39.5
 31
0.0
  0
LINE
  5
73
330
1F
100
AcDbEntity
  8
1
  6
Continuous
 62
     7
100
AcDbLine
 10
-80.66139304626185
 20
-37.61302529492226
 30
0.0
 11
-73.86408464348699
 21
-34.44338833186701
 31
0.0
  0
LINE
  5
74
330
1F
100
AcDbEntity
  8
1
  6
Continuous
 62
     7
100
AcDbLine
 10
-79.29958065276473
 20
-40.40515447681967
 30
0.0
 11
-74.8445480318229
 21
-38.13520197812193
 31
0.0
  0
LINE
  5
75
330
1F
100
AcDbEntity
  8
1
  6
Continuous
 62
     7
100
AcDbLine
 10
-78.58233576444449
 20
-41.78296908794428
 30
0.0
 11
-74.16759780014986
 21
-39.43561127401483
 31
0.0
  0
LINE
  5
76
330
1F
100
AcDbEntity
  8
1
  6
Continuous
 62
     7
100
AcDbLine
 10
-77.84115393540621
 20
-43.148056201924
 30
0.0
 11
-73.46805539970923
 21
-40.72400810069232
 31
0.0
  0
LINE
  5
77
330
1F
100
AcDbEntity
  8
1
  6
Continuous
 62
     7
100
AcDbLine
 10
-83.08865795825096
 20
-31.89474750953173
 30
0.0
 11
-78.42075582576496
 21
-30.10290776180523
 31
0.0
  0
LINE
  5
78
330
1F
100
AcDbEntity
  8
1
  6
Continuous
 62
     7
100
AcDbLine
 10
-82.51936305644409
 20
-33.33998681401618
 30
0.0
 11
-77.88344378361016
 21
-31.46695384693662
 31
0.0
  0
LINE
  5
79
330
1F
100
AcDbEntity
  8
1
  6
Continuous
 62
     7
100
AcDbLine
 10
-81.92493195726718
 20
-34.77507043554537
 30
0.0
 11
-77.32240769000499
 21
-32.82141479309901
 31
0.0
  0
LINE
  5
7A
330
1F
100
AcDbEntity
  8
1
  6
Continuous
 62
     7
100
AcDbLine
 10
-81.30554573019148
 20
-36.19956123374622
 30
0.0
 11
-76.73781844197848
 21
-34.16587801836723
 31
0.0
  0
LINE
  5
7B
330
1F
100
AcDbEntity
  8
1
  6
Continuous
 62
     7
100
AcDbLine
 10
-83.63264324994586
 20
-30.43979275598452
 30
0.0
 11
-74.23571704208675
 21
-27.01959132272783
 31
0.0
  0
LINE
  5
7C
330
1F
100
AcDbEntity
  8
1
  6
Continuous
 62
     7
100
AcDbLine
 10
-85.96739853972709
 20
-23.03489501412436
 30
0.0
 11
-78.72295484255906
 21
-21.09375217585545
 31
0.0
  0
LINE
  5
7D
330
1F
100
AcDbEntity
  8
1
  6
Continuous
 62
     7
100
AcDbLine
 10
-85.55229093851038
 20
-24.53172466771294
 30
0.0
 11
-80.74598245881876
 21
-23.15353788862794
 31
0.0
  0
LINE
  5
7E
330
1F
100
AcDbEntity
  8
1
  6
Continuous
 62
     7
100
AcDbLine
 10
-85.11112328071017
 20
-26.02108172032358
 30
0.0
 11
-80.32959950089496
 21
-24.55922319670989
 31
0.0
  0
LINE
  5
7F
330
1F
100
AcDbEntity
  8
1
  6
Continuous
 62
     7
100
AcDbLine
 10
-84.64402995026869
 20
-27.50251249937034
 30
0.0
 11
-79.88874736879289
 21
-25.95742752749559
 31
0.0
  0
LINE
  5
80
330
1F
100
AcDbEntity
  8
1
  6
Continuous
 62
     7
100
AcDbLine
 10
-84.15115322833918
 20
-28.97556574668695
 30
0.0
 11
-79.4235603503426
 21
-27.34772497440117
 31
0.0
  0
LINE
  5
81
330
1F
100
AcDbEntity
  8
1
  6
Continuous
 62
     7
100
AcDbLine
 10
-87.36481932684214
 20
-16.98200058851248
 30
0.0
 11
-82.45668340960384
 21
-16.02795561162975
 31
0.0
  0
LINE
  5
82
330
1F
100
AcDbEntity
  8
1
  6
Continuous
 62
     7
100
AcDbLine
 10
-87.05513646530875
 20
-18.50414048278058
 30
0.0
 11
-82.16439846163973
 21
-17.46458202869178
 31
0.0
  0
LINE
  5
83
330
1F
100
AcDbEntity
  8
1
  6
Continuous
 62
     7
100
AcDbLine
 10
-86.71893576588594
 20
-20.02064383660399
 30
0.0
 11
-81.84708544195976
 21
-18.89588856488466
 31
0.0
  0
LINE
  5
84
330
1F
100
AcDbEntity
  8
1
  6
Continuous
 62
     7
100
AcDbLine
 10
-86.35631963856369
 20
-21.53104870837044
 30
0.0
 11
-81.50484100718369
 21
-20.3214392303721
 31
0.0
  0
LINE
  5
85
330
1F
100
AcDbEntity
  8
1
  6
Continuous
 62
     7
100
AcDbLine
 10
-87.64789001808656
 20
-15.4546878123568
 30
0.0
 11
-77.79981248796446
 21
-13.71820603568749
 31
0.0
  0
LINE
  5
86
330
1F
100
AcDbEntity
  8
1
  6
Continuous
 62
     7
100
AcDbLine
 10
-88.66132813016536
 20
-7.75686110454157
 30
0.0
 11
-81.18986789447733
 21
-7.10319303393414
 31
0.0
  0
LINE
  5
87
330
1F
100
AcDbEntity
  8
1
  6
Continuous
 62
     7
100
AcDbLine
 10
-88.51244868777633
 20
-9.30303323082116
 30
0.0
 11
-83.53983921093496
 21
-8.7803909144829
 31
0.0
  0
LINE
  5
88
330
1F
100
AcDbEntity
  8
1
  6
Continuous
 62
     7
100
AcDbLine
 10
-88.33660749607766
 20
-10.84637156305812
 30
0.0
 11
-83.37387673787104
 21
-10.2370248460324
 31
0.0
  0
LINE
  5
89
330
1F
100
AcDbEntity
  8
1
  6
Continuous
 62
     7
100
AcDbLine
 10
-88.13385811799979
 20
-12.38640598544582
 30
0.0
 11
-83.18251777429191
 21
-11.69054048064551
 31
0.0
  0
LINE
  5
8A
330
1F
100
AcDbEntity
  8
1
  6
Continuous
 62
     7
100
AcDbLine
 10
-87.90426231296729
 20
-13.92266738858054
 30
0.0
 11
-82.96582060999161
 21
-13.14049506337938
 31
0.0
  0
LINE
  5
8B
330
1F
100
AcDbEntity
  8
1
  6
Continuous
 62
     7
100
AcDbLine
 10
-88.98644486891885
 20
-1.55326417291823
 30
0.0
 11
-83.98720639313692
 21
-1.46600214073181
 31
0.0
  0
LINE
  5
8C
330
1F
100
AcDbEntity
  8
1
  6
Continuous
 62
     7
100
AcDbLine
 10
-88.94578360469954
 20
-3.10605520652258
 30
0.0
 11
-83.94882946960408
 21
-2.93155772301008
 31
0.0
  0
LINE
  5
8D
330
1F
100
AcDbEntity
  8
1
  6
Continuous
 62
     7
100
AcDbLine
 10
-88.87802859315708
 20
-4.657900105622
 30
0.0
 11
-83.88488091938423
 21
-4.39622032440728
 31
0.0
  0
LINE
  5
8E
330
1F
100
AcDbEntity
  8
1
  6
Continuous
 62
     7
100
AcDbLine
 10
-88.78320047312437
 20
-6.20832616322715
 30
0.0
 11
-83.79538022182525
 21
-5.85954379450652
 31
0.0
  0
LINE
  5
8F
330
1F
100
AcDbEntity
  8
1
  6
Continuous
 62
     7
100
AcDbLine
 10
-79.99267012062585
 20
-39.0150320642279
 30
0.0
 11
-75.49869988913002
 21
-36.8231763302825
 31
0.0
  0
LINE
  5
90
330
1F
100
AcDbEntity
  8
1
  6
DOT_CENTER
 62
     7
100
AcDbLine
 10
-4.99999999999998
 20
0.00000000000003
 30
0.0
 11
5.00000000000001
 21
0.00000000000003
 31
0.0
  0
LINE
  5
91
330
1F
100
AcDbEntity
  8
1
  6
Continuous
 62
     7
100
AcDbLine
 10
89.0
 20
0.0
 30
0.0
 11
79.0
 21
0.0
 31
0.0
  0
LINE
  5
92
330
1F
100
AcDbEntity
  8
1
  6
Continuous
 62
     7
100
AcDbLine
 10
88.66132813016536
 20
-7.75686110454158
 30
0.0
 11
81.18986789447727
 21
-7.10319303393414
 31
0.0
  0
LINE
  5
93
330
1F
100
AcDbEntity
  8
1
  6
Continuous
 62
     7
100
AcDbLine
 10
88.78320047312437
 20
-6.20832616322715
 30
0.0
 11
83.79538022182524
 21
-5.85954379450652
 31
0.0
  0
LINE
  5
94
330
1F
100
AcDbEntity
  8
1
  6
Continuous
 62
     7
100
AcDbLine
 10
88.87802859315708
 20
-4.657900105622
 30
0.0
 11
83.88488091938422
 21
-4.39622032440728
 31
0.0
  0
LINE
  5
95
330
1F
100
AcDbEntity
  8
1
  6
Continuous
 62
     7
100
AcDbLine
 10
88.94578360469953
 20
-3.10605520652259
 30
0.0
 11
83.94882946960405
 21
-2.93155772301008
 31
0.0
  0
LINE
  5
96
330
1F
100
AcDbEntity
  8
1
  6
Continuous
 62
     7
100
AcDbLine
 10
88.98644486891882
 20
-1.55326417291823
 30
0.0
 11
83.98720639313687
 21
-1.46600214073181
 31
0.0
  0
LINE
  5
97
330
1F
100
AcDbEntity
  8
1
  6
Continuous
 62
     7
100
AcDbLine
 10
87.90426231296728
 20
-13.92266738858055
 30
0.0
 11
82.96582060999158
 21
-13.14049506337939
 31
0.0
  0
LINE
  5
98
330
1F
100
AcDbEntity
  8
1
  6
Continuous
 62
     7
100
AcDbLine
 10
88.13385811799978
 20
-12.38640598544583
 30
0.0
 11
83.18251777429192
 21
-11.6905404806455
 31
0.0
  0
LINE
  5
99
330
1F
100
AcDbEntity
  8
1
  6
Continuous
 62
     7
100
AcDbLine
 10
88.33660749607768
 20
-10.84637156305813
 30
0.0
 11
83.37387673787107
 21
-10.23702484603239
 31
0.0
  0
LINE
  5
9A
330
1F
100
AcDbEntity
  8
1
  6
Continuous
 62
     7
100
AcDbLine
 10
88.51244868777634
 20
-9.30303323082116
 30
0.0
 11
83.53983921093497
 21
-8.78039091448289
 31
0.0
  0
LINE
  5
9B
330
1F
100
AcDbEntity
  8
1
  6
Continuous
 62
     7
100
AcDbLine
 10
87.64789001808651
 20
-15.4546878123568
 30
0.0
 11
77.79981248796443
 21
-13.7182060356875
 31
0.0
  0
LINE
  5
9C
330
1F
100
AcDbEntity
  8
1
  6
Continuous
 62
     7
100
AcDbLine
 10
85.96739853972709
 20
-23.03489501412434
 30
0.0
 11
78.72295484255908
 21
-21.09375217585544
 31
0.0
  0
LINE
  5
9D
330
1F
100
AcDbEntity
  8
1
  6
Continuous
 62
     7
100
AcDbLine
 10
86.35631963856369
 20
-21.53104870837043
 30
0.0
 11
81.5048410071837
 21
-20.32143923037209
 31
0.0
  0
LINE
  5
9E
330
1F
100
AcDbEntity
  8
1
  6
Continuous
 62
     7
100
AcDbLine
 10
86.71893576588594
 20
-20.02064383660398
 30
0.0
 11
81.84708544195976
 21
-18.89588856488466
 31
0.0
  0
LINE
  5
9F
330
1F
100
AcDbEntity
  8
1
  6
Continuous
 62
     7
100
AcDbLine
 10
87.05513646530871
 20
-18.50414048278058
 30
0.0
 11
82.16439846163968
 21
-17.46458202869178
 31
0.0
  0
LINE
  5
A0
330
1F
100
AcDbEntity
  8
1
  6
Continuous
 62
     7
100
AcDbLine
 10
87.3648193268421
 20
-16.98200058851249
 30
0.0
 11
82.45668340960378
 21
-16.02795561162976
 31
0.0
  0
LINE
  5
A1
330
1F
100
AcDbEntity
  8
1
  6
Continuous
 62
     7
100
AcDbLine
 10
84.15115322833921
 20
-28.97556574668695
 30
0.0
 11
79.42356035034261
 21
-27.34772497440116
 31
0.0
  0
LINE
  5
A2
330
1F
100
AcDbEntity
  8
1
  6
Continuous
 62
     7
100
AcDbLine
 10
84.64402995026869
 20
-27.50251249937033
 30
0.0
 11
79.88874736879291
 21
-25.95742752749559
 31
0.0
  0
LINE
  5
A3
330
1F
100
AcDbEntity
  8
1
  6
Continuous
 62
     7
100
AcDbLine
 10
85.11112328071017
 20
-26.02108172032357
 30
0.0
 11
80.329599500895
 21
-24.55922319670989
 31
0.0
  0
LINE
  5
A4
330
1F
100
AcDbEntity
  8
1
  6
Continuous
 62
     7
100
AcDbLine
 10
85.5522909385104
 20
-24.53172466771293
 30
0.0
 11
80.74598245881879
 21
-23.15353788862793
 31
0.0
  0
LINE
  5
A5
330
1F
100
AcDbEntity
  8
1
  6
Continuous
 62
     7
100
AcDbLine
 10
83.63264324994584
 20
-30.43979275598451
 30
0.0
 11
74.23571704208676
 21
-27.01959132272782
 31
0.0
  0
LINE
  5
A6
330
1F
100
AcDbEntity
  8
1
  6
Continuous
 62
     7
100
AcDbLine
 10
80.66139304626185
 20
-37.61302529492225
 30
0.0
 11
73.86408464348698
 21
-34.443388331867
 31
0.0
  0
LINE
  5
A7
330
1F
100
AcDbEntity
  8
1
  6
Continuous
 62
     7
100
AcDbLine
 10
81.30554573019148
 20
-36.19956123374622
 30
0.0
 11
76.73781844197848
 21
-34.16587801836721
 31
0.0
  0
LINE
  5
A8
330
1F
100
AcDbEntity
  8
1
  6
Continuous
 62
     7
100
AcDbLine
 10
81.92493195726719
 20
-34.77507043554536
 30
0.0
 11
77.32240769000499
 21
-32.821414793099
 31
0.0
  0
LINE
  5
A9
330
1F
100
AcDbEntity
  8
1
  6
Continuous
 62
     7
100
AcDbLine
 10
82.51936305644408
 20
-33.33998681401616
 30
0.0
 11
77.88344378361015
 21
-31.46695384693661
 31
0.0
  0
LINE
  5
AA
330
1F
100
AcDbEntity
  8
1
  6
Continuous
 62
     7
100
AcDbLine
 10
83.08865795825095
 20
-31.89474750953172
 30
0.0
 11
78.42075582576494
 21
-30.10290776180522
 31
0.0
  0
LINE
  5
AB
330
1F
100
AcDbEntity
  8
1
  6
Continuous
 62
     7
100
AcDbLine
 10
77.84115393540624
 20
-43.14805620192399
 30
0.0
 11
73.46805539970926
 21
-40.72400810069231
 31
0.0
  0
LINE
  5
AC
330
1F
100
AcDbEntity
  8
1
  6
Continuous
 62
     7
100
AcDbLine
 10
78.58233576444451
 20
-41.78296908794428
 30
0.0
 11
74.16759780014988
 21
-39.43561127401482
 31
0.0
  0
LINE
  5
AD
330
1F
100
AcDbEntity
  8
1
  6
Continuous
 62
     7
100
AcDbLine
 10
79.29958065276475
 20
-40.40515447681966
 30
0.0
 11
74.84454803182292
 21
-38.13520197812193
 31
0.0
  0
LINE
  5
AE
330
1F
100
AcDbEntity
  8
1
  6
Continuous
 62
     7
100
AcDbLine
 10
79.99267012062587
 20
-39.01503206422789
 30
0.0
 11
75.49869988913004
 21
-36.8231763302825
 31
0.0
  0
LINE
  5
AF
330
1F
100
AcDbEntity
  8
1
  6
Continuous
 62
     7
100
AcDbLine
 10
77.07626093681503
 20
-44.49999999999999
 30
0.0
 11
68.41600689897065
 21
-39.49999999999999
 31
0.0
  0
LINE
  5
B0
330
1F
100
AcDbEntity
  8
1
  6
Continuous
 62
     7
100
AcDbLine
 10
72.90453194172028
 20
-51.0483028352431
 30
0.0
 11
66.76089160955284
 21
-46.74647956261025
 31
0.0
  0
LINE
  5
B1
330
1F
100
AcDbEntity
  8
1
  6
Continuous
 62
     7
100
AcDbLine
 10
73.78434395739872
 20
-49.76816840889646
 30
0.0
 11
69.6391560946235
 21
-46.97220389154273
 31
0.0
  0
LINE
  5
B2
330
1F
100
AcDbEntity
  8
1
  6
Continuous
 62
     7
100
AcDbLine
 10
74.64168054714274
 20
-48.47287411633741
 30
0.0
 11
70.44832770741561
 21
-45.74967894126227
 31
0.0
  0
LINE
  5
B3
330
1F
100
AcDbEntity
  8
1
  6
Continuous
 62
     7
100
AcDbLine
 10
75.47628055792191
 20
-47.16281451675524
 30
0.0
 11
71.23604007713978
 21
-44.51321819558921
 31
0.0
  0
LINE
  5
B4
330
1F
100
AcDbEntity
  8
1
  6
Continuous
 62
     7
100
AcDbLine
 10
76.28788976248799
 20
-45.83838866699482
 30
0.0
 11
72.00205325897744
 21
-43.26319829244455
 31
0.0
  0
LINE
  5
B5
330
1F
100
AcDbEntity
  8
1
  6
Continuous
 62
     7
100
AcDbLine
 10
69.16599056967041
 20
-56.00951480343554
 30
0.0
 11
65.28026076238555
 21
-52.86291284818635
 31
0.0
  0
LINE
  5
B6
330
1F
100
AcDbEntity
  8
1
  6
Continuous
 62
     7
100
AcDbLine
 10
70.13295707099826
 20
-54.79387130398359
 30
0.0
 11
66.19290330296465
 21
-51.7155639273553
 31
0.0
  0
LINE
  5
B7
330
1F
100
AcDbEntity
  8
1
  6
Continuous
 62
     7
100
AcDbLine
 10
71.07856039420908
 20
-53.5615370605323
 30
0.0
 11
67.08538284397261
 21
-50.55246194477206
 31
0.0
  0
LINE
  5
B8
330
1F
100
AcDbEntity
  8
1
  6
Continuous
 62
     7
100
AcDbLine
 10
72.00251249937034
 20
-52.3128874540301
 30
0.0
 11
67.95742752749558
 21
-49.37396119256774
 31
0.0
  0
LINE
  5
B9
330
1F
100
AcDbEntity
  8
1
  6
Continuous
 62
     7
100
AcDbLine
 10
68.17795543758905
 20
-57.20809726210199
 30
0.0
 11
60.51751100639926
 21
-50.78022116523659
 31
0.0
  0
LINE
  5
BA
330
1F
100
AcDbEntity
  8
1
  6
Continuous
 62
     7
100
AcDbLine
 10
62.93250352560273
 20
-62.93250352560271
 30
0.0
 11
57.62920266670363
 21
-57.62920266670362
 31
0.0
  0
LINE
  5
BB
330
1F
100
AcDbEntity
  8
1
  6
Continuous
 62
     7
100
AcDbLine
 10
64.02124223013995
 20
-61.82459497085075
 30
0.0
 11
60.4245432284467
 21
-58.35130311855576
 31
0.0
  0
LINE
  5
BC
330
1F
100
AcDbEntity
  8
1
  6
Continuous
 62
     7
100
AcDbLine
 10
65.09047944410618
 20
-60.69785404556235
 30
0.0
 11
61.43371093601033
 21
-57.28786224524987
 31
0.0
  0
LINE
  5
BD
330
1F
100
AcDbEntity
  8
1
  6
Continuous
 62
     7
100
AcDbLine
 10
66.1398894674881
 20
-59.55262396593837
 30
0.0
 11
62.42416534010113
 21
-56.20697093414408
 31
0.0
  0
LINE
  5
BE
330
1F
100
AcDbEntity
  8
1
  6
Continuous
 62
     7
100
AcDbLine
 10
67.16915263982671
 20
-58.38925358015513
 30
0.0
 11
63.39560473871285
 21
-55.1089584352026
 31
0.0
  0
LINE
  5
BF
330
1F
100
AcDbEntity
  8
1
  6
Continuous
 62
     7
100
AcDbLine
 10
58.38925358015517
 20
-67.16915263982671
 30
0.0
 11
55.10895843520262
 21
-63.39560473871284
 31
0.0
  0
LINE
  5
C0
330
1F
100
AcDbEntity
  8
1
  6
Continuous
 62
     7
100
AcDbLine
 10
59.55262396593839
 20
-66.13988946748809
 30
0.0
 11
56.2069709341441
 21
-62.42416534010111
 31
0.0
  0
LINE
  5
C1
330
1F
100
AcDbEntity
  8
1
  6
Continuous
 62
     7
100
AcDbLine
 10
60.69785404556237
 20
-65.09047944410617
 30
0.0
 11
57.28786224524989
 21
-61.43371093601031
 31
0.0
  0
LINE
  5
C2
330
1F
100
AcDbEntity
  8
1
  6
Continuous
 62
     7
100
AcDbLine
 10
61.82459497085078
 20
-64.02124223013995
 30
0.0
 11
58.35130311855578
 21
-60.42454322844669
 31
0.0
  0
LINE
  5
C3
330
1F
100
AcDbEntity
  8
1
  6
Continuous
 62
     7
100
AcDbLine
 10
57.20809726210199
 20
-68.17795543758903
 30
0.0
 11
50.7802211652366
 21
-60.51751100639925
 31
0.0
  0
LINE
  5
C4
330
1F
100
AcDbEntity
  8
1
  6
Continuous
 62
     7
100
AcDbLine
 10
51.04830283524311
 20
-72.90453194172025
 30
0.0
 11
46.74647956261026
 21
-66.76089160955283
 31
0.0
  0
LINE
  5
C5
330
1F
100
AcDbEntity
  8
1
  6
Continuous
 62
     7
100
AcDbLine
 10
52.31288745403011
 20
-72.00251249937033
 30
0.0
 11
49.37396119256774
 21
-67.95742752749557
 31
0.0
  0
LINE
  5
C6
330
1F
100
AcDbEntity
  8
1
  6
Continuous
 62
     7
100
AcDbLine
 10
53.5615370605323
 20
-71.07856039420906
 30
0.0
 11
50.55246194477206
 21
-67.0853828439726
 31
0.0
  0
LINE
  5
C7
330
1F
100
AcDbEntity
  8
1
  6
Continuous
 62
     7
100
AcDbLine
 10
54.79387130398358
 20
-70.13295707099824
 30
0.0
 11
51.7155639273553
 21
-66.19290330296464
 31
0.0
  0
LINE
  5
C8
330
1F
100
AcDbEntity
  8
1
  6
Continuous
 62
     7
100
AcDbLine
 10
56.00951480343553
 20
-69.1659905696704
 30
0.0
 11
52.86291284818634
 21
-65.28026076238555
 31
0.0
  0
LINE
  5
C9
330
1F
100
AcDbEntity
  8
1
  6
Continuous
 62
     7
100
AcDbLine
 10
45.83838866699483
 20
-76.28788976248799
 30
0.0
 11
43.26319829244456
 21
-72.00205325897743
 31
0.0
  0
LINE
  5
CA
330
1F
100
AcDbEntity
  8
1
  6
Continuous
 62
     7
100
AcDbLine
 10
47.16281451675525
 20
-75.47628055792191
 30
0.0
 11
44.51321819558922
 21
-71.23604007713978
 31
0.0
  0
LINE
  5
CB
330
1F
100
AcDbEntity
  8
1
  6
Continuous
 62
     7
100
AcDbLine
 10
48.47287411633741
 20
-74.64168054714273
 30
0.0
 11
45.74967894126228
 21
-70.44832770741561
 31
0.0
  0
LINE
  5
CC
330
1F
100
AcDbEntity
  8
1
  6
Continuous
 62
     7
100
AcDbLine
 10
49.76816840889647
 20
-73.7843439573987
 30
0.0
 11
46.97220389154273
 21
-69.6391560946235
 31
0.0
  0
LINE
  5
CD
330
1F
100
AcDbEntity
  8
1
  6
Continuous
 62
     7
100
AcDbLine
 10
44.5
 20
-77.07626093681503
 30
0.0
 11
39.5
 21
-68.41600689897064
 31
0.0
  0
LINE
  5
CE
330
1F
100
AcDbEntity
  8
1
  6
Continuous
 62
     7
100
AcDbLine
 10
37.61302529492226
 20
-80.66139304626185
 30
0.0
 11
34.44338833186701
 21
-73.86408464348699
 31
0.0
  0
LINE
  5
CF
330
1F
100
AcDbEntity
  8
1
  6
Continuous
 62
     7
100
AcDbLine
 10
40.40515447681967
 20
-79.29958065276473
 30
0.0
 11
38.13520197812193
 21
-74.8445480318229
 31
0.0
  0
LINE
  5
D0
330
1F
100
AcDbEntity
  8
1
  6
Continuous
 62
     7
100
AcDbLine
 10
41.78296908794428
 20
-78.58233576444449
 30
0.0
 11
39.43561127401483
 21
-74.16759780014986
 31
0.0
  0
LINE
  5
D1
330
1F
100
AcDbEntity
  8
1
  6
Continuous
 62
     7
100
AcDbLine
 10
43.148056201924
 20
-77.84115393540621
 30
0.0
 11
40.72400810069232
 21
-73.46805539970923
 31
0.0
  0
LINE
  5
D2
330
1F
100
AcDbEntity
  8
1
  6
Continuous
 62
     7
100
AcDbLine
 10
31.89474750953173
 20
-83.08865795825096
 30
0.0
 11
30.10290776180523
 21
-78.42075582576496
 31
0.0
  0
LINE
  5
D3
330
1F
100
AcDbEntity
  8
1
  6
Continuous
 62
     7
100
AcDbLine
 10
33.33998681401618
 20
-82.51936305644409
 30
0.0
 11
31.46695384693662
 21
-77.88344378361016
 31
0.0
  0
LINE
  5
D4
330
1F
100
AcDbEntity
  8
1
  6
Continuous
 62
     7
100
AcDbLine
 10
34.77507043554537
 20
-81.92493195726718
 30
0.0
 11
32.82141479309901
 21
-77.32240769000499
 31
0.0
  0
LINE
  5
D5
330
1F
100
AcDbEntity
  8
1
  6
Continuous
 62
     7
100
AcDbLine
 10
36.19956123374622
 20
-81.30554573019148
 30
0.0
 11
34.16587801836723
 21
-76.73781844197848
 31
0.0
  0
LINE
  5
D6
330
1F
100
AcDbEntity
  8
1
  6
Continuous
 62
     7
100
AcDbLine
 10
30.43979275598452
 20
-83.63264324994586
 30
0.0
 11
27.01959132272783
 21
-74.23571704208675
 31
0.0
  0
LINE
  5
D7
330
1F
100
AcDbEntity
  8
1
  6
Continuous
 62
     7
100
AcDbLine
 10
23.03489501412436
 20
-85.96739853972709
 30
0.0
 11
21.09375217585545
 21
-78.72295484255906
 31
0.0
  0
LINE
  5
D8
330
1F
100
AcDbEntity
  8
1
  6
Continuous
 62
     7
100
AcDbLine
 10
24.53172466771294
 20
-85.55229093851038
 30
0.0
 11
23.15353788862794
 21
-80.74598245881876
 31
0.0
  0
LINE
  5
D9
330
1F
100
AcDbEntity
  8
1
  6
Continuous
 62
     7
100
AcDbLine
 10
26.02108172032358
 20
-85.11112328071017
 30
0.0
 11
24.55922319670989
 21
-80.32959950089496
 31
0.0
  0
LINE
  5
DA
330
1F
100
AcDbEntity
  8
1
  6
Continuous
 62
     7
100
AcDbLine
 10
27.50251249937034
 20
-84.64402995026869
 30
0.0
 11
25.95742752749559
 21
-79.88874736879289
 31
0.0
  0
LINE
  5
DB
330
1F
100
AcDbEntity
  8
1
  6
Continuous
 62
     7
100
AcDbLine
 10
28.97556574668695
 20
-84.15115322833918
 30
0.0
 11
27.34772497440117
 21
-79.4235603503426
 31
0.0
  0
LINE
  5
DC
330
1F
100
AcDbEntity
  8
1
  6
Continuous
 62
     7
100
AcDbLine
 10
16.98200058851248
 20
-87.36481932684214
 30
0.0
 11
16.02795561162975
 21
-82.45668340960384
 31
0.0
  0
LINE
  5
DD
330
1F
100
AcDbEntity
  8
1
  6
Continuous
 62
     7
100
AcDbLine
 10
18.50414048278058
 20
-87.05513646530875
 30
0.0
 11
17.46458202869178
 21
-82.16439846163973
 31
0.0
  0
LINE
  5
DE
330
1F
100
AcDbEntity
  8
1
  6
Continuous
 62
     7
100
AcDbLine
 10
20.02064383660399
 20
-86.71893576588594
 30
0.0
 11
18.89588856488466
 21
-81.84708544195976
 31
0.0
  0
LINE
  5
DF
330
1F
100
AcDbEntity
  8
1
  6
Continuous
 62
     7
100
AcDbLine
 10
21.53104870837044
 20
-86.35631963856369
 30
0.0
 11
20.3214392303721
 21
-81.50484100718369
 31
0.0
  0
LINE
  5
E0
330
1F
100
AcDbEntity
  8
1
  6
Continuous
 62
     7
100
AcDbLine
 10
15.4546878123568
 20
-87.64789001808656
 30
0.0
 11
13.71820603568749
 21
-77.79981248796446
 31
0.0
  0
LINE
  5
E1
330
1F
100
AcDbEntity
  8
1
  6
Continuous
 62
     7
100
AcDbLine
 10
7.75686110454157
 20
-88.66132813016536
 30
0.0
 11
7.10319303393414
 21
-81.18986789447733
 31
0.0
  0
LINE
  5
E2
330
1F
100
AcDbEntity
  8
1
  6
Continuous
 62
     7
100
AcDbLine
 10
9.30303323082116
 20
-88.51244868777633
 30
0.0
 11
8.7803909144829
 21
-83.53983921093496
 31
0.0
  0
LINE
  5
E3
330
1F
100
AcDbEntity
  8
1
  6
Continuous
 62
     7
100
AcDbLine
 10
10.84637156305812
 20
-88.33660749607766
 30
0.0
 11
10.2370248460324
 21
-83.37387673787104
 31
0.0
  0
LINE
  5
E4
330
1F
100
AcDbEntity
  8
1
  6
Continuous
 62
     7
100
AcDbLine
 10
12.38640598544582
 20
-88.13385811799979
 30
0.0
 11
11.69054048064551
 21
-83.18251777429191
 31
0.0
  0
LINE
  5
E5
330
1F
100
AcDbEntity
  8
1
  6
Continuous
 62
     7
100
AcDbLine
 10
13.92266738858054
 20
-87.90426231296729
 30
0.0
 11
13.14049506337938
 21
-82.96582060999161
 31
0.0
  0
LINE
  5
E6
330
1F
100
AcDbEntity
  8
1
  6
Continuous
 62
     7
100
AcDbLine
 10
1.55326417291823
 20
-88.98644486891885
 30
0.0
 11
1.46600214073181
 21
-83.98720639313692
 31
0.0
  0
LINE
  5
E7
330
1F
100
AcDbEntity
  8
1
  6
Continuous
 62
     7
100
AcDbLine
 10
3.10605520652258
 20
-88.94578360469954
 30
0.0
 11
2.93155772301008
 21
-83.94882946960408
 31
0.0
  0
LINE
  5
E8
330
1F
100
AcDbEntity
  8
1
  6
Continuous
 62
     7
100
AcDbLine
 10
4.657900105622
 20
-88.87802859315708
 30
0.0
 11
4.39622032440728
 21
-83.88488091938423
 31
0.0
  0
LINE
  5
E9
330
1F
100
AcDbEntity
  8
1
  6
Continuous
 62
     7
100
AcDbLine
 10
6.20832616322715
 20
-88.78320047312437
 30
0.0
 11
5.85954379450652
 21
-83.79538022182525
 31
0.0
  0
LINE
  5
EA
330
1F
100
AcDbEntity
  8
1
  6
Continuous
 62
     7
100
AcDbLine
 10
39.0150320642279
 20
-79.99267012062585
 30
0.0
 11
36.8231763302825
 21
-75.49869988913002
 31
0.0
  0
LINE
  5
EB
330
1F
100
AcDbEntity
  8
1
  6
Continuous
 62
     7
100
AcDbLine
 10
0.0
 20
89.0
 30
0.0
 11
0.0
 21
79.0
 31
0.0
  0
LINE
  5
EC
330
1F
100
AcDbEntity
  8
1
  6
Continuous
 62
     7
100
AcDbLine
 10
7.75686110454158
 20
88.66132813016536
 30
0.0
 11
7.10319303393414
 21
81.18986789447727
 31
0.0
  0
LINE
  5
ED
330
1F
100
AcDbEntity
  8
1
  6
Continuous
 62
     7
100
AcDbLine
 10
6.20832616322715
 20
88.78320047312437
 30
0.0
 11
5.85954379450652
 21
83.79538022182524
 31
0.0
  0
LINE
  5
EE
330
1F
100
AcDbEntity
  8
1
  6
Continuous
 62
     7
100
AcDbLine
 10
4.657900105622
 20
88.87802859315708
 30
0.0
 11
4.39622032440728
 21
83.88488091938422
 31
0.0
  0
LINE
  5
EF
330
1F
100
AcDbEntity
  8
1
  6
Continuous
 62
     7
100
AcDbLine
 10
3.10605520652259
 20
88.94578360469953
 30
0.0
 11
2.93155772301008
 21
83.94882946960405
 31
0.0
  0
LINE
  5
F0
330
1F
100
AcDbEntity
  8
1
  6
Continuous
 62
     7
100
AcDbLine
 10
1.55326417291823
 20
88.98644486891882
 30
0.0
 11
1.46600214073181
 21
83.98720639313687
 31
0.0
  0
LINE
  5
F1
330
1F
100
AcDbEntity
  8
1
  6
Continuous
 62
     7
100
AcDbLine
 10
13.92266738858055
 20
87.90426231296728
 30
0.0
 11
13.14049506337939
 21
82.96582060999158
 31
0.0
  0
LINE
  5
F2
330
1F
100
AcDbEntity
  8
1
  6
Continuous
 62
     7
100
AcDbLine
 10
12.38640598544583
 20
88.13385811799978
 30
0.0
 11
11.6905404806455
 21
83.18251777429192
 31
0.0
  0
LINE
  5
F3
330
1F
100
AcDbEntity
  8
1
  6
Continuous
 62
     7
100
AcDbLine
 10
10.84637156305813
 20
88.33660749607766
 30
0.0
 11
10.23702484603239
 21
83.37387673787107
 31
0.0
  0
LINE
  5
F4
330
1F
100
AcDbEntity
  8
1
  6
Continuous
 62
     7
100
AcDbLine
 10
9.30303323082116
 20
88.51244868777634
 30
0.0
 11
8.78039091448289
 21
83.53983921093497
 31
0.0
  0
LINE
  5
F5
330
1F
100
AcDbEntity
  8
1
  6
Continuous
 62
     7
100
AcDbLine
 10
15.4546878123568
 20
87.64789001808651
 30
0.0
 11
13.7182060356875
 21
77.79981248796443
 31
0.0
  0
LINE
  5
F6
330
1F
100
AcDbEntity
  8
1
  6
Continuous
 62
     7
100
AcDbLine
 10
23.03489501412434
 20
85.96739853972709
 30
0.0
 11
21.09375217585544
 21
78.72295484255908
 31
0.0
  0
LINE
  5
F7
330
1F
100
AcDbEntity
  8
1
  6
Continuous
 62
     7
100
AcDbLine
 10
21.53104870837043
 20
86.35631963856369
 30
0.0
 11
20.32143923037209
 21
81.5048410071837
 31
0.0
  0
LINE
  5
F8
330
1F
100
AcDbEntity
  8
1
  6
Continuous
 62
     7
100
AcDbLine
 10
20.02064383660398
 20
86.71893576588594
 30
0.0
 11
18.89588856488466
 21
81.84708544195976
 31
0.0
  0
LINE
  5
F9
330
1F
100
AcDbEntity
  8
1
  6
Continuous
 62
     7
100
AcDbLine
 10
18.50414048278058
 20
87.05513646530871
 30
0.0
 11
17.46458202869178
 21
82.16439846163968
 31
0.0
  0
LINE
  5
FA
330
1F
100
AcDbEntity
  8
1
  6
Continuous
 62
     7
100
AcDbLine
 10
16.98200058851249
 20
87.3648193268421
 30
0.0
 11
16.02795561162976
 21
82.45668340960378
 31
0.0
  0
LINE
  5
FB
330
1F
100
AcDbEntity
  8
1
  6
Continuous
 62
     7
100
AcDbLine
 10
28.97556574668695
 20
84.15115322833921
 30
0.0
 11
27.34772497440116
 21
79.42356035034261
 31
0.0
  0
LINE
  5
FC
330
1F
100
AcDbEntity
  8
1
  6
Continuous
 62
     7
100
AcDbLine
 10
27.5025124993703
 20
84.64402995026866
 30
0.0
 11
25.95742752749559
 21
79.88874736879291
 31
0.0
  0
LINE
  5
FD
330
1F
100
AcDbEntity
  8
1
  6
Continuous
 62
     7
100
AcDbLine
 10
26.02108172032357
 20
85.11112328071017
 30
0.0
 11
24.55922319670989
 21
80.329599500895
 31
0.0
  0
LINE
  5
FE
330
1F
100
AcDbEntity
  8
1
  6
Continuous
 62
     7
100
AcDbLine
 10
24.53172466771293
 20
85.5522909385104
 30
0.0
 11
23.15353788862793
 21
80.74598245881879
 31
0.0
  0
LINE
  5
FF
330
1F
100
AcDbEntity
  8
1
  6
Continuous
 62
     7
100
AcDbLine
 10
30.43979275598451
 20
83.63264324994584
 30
0.0
 11
27.01959132272782
 21
74.23571704208676
 31
0.0
  0
LINE
  5
100
330
1F
100
AcDbEntity
  8
1
  6
Continuous
 62
     7
100
AcDbLine
 10
37.61302529492225
 20
80.66139304626185
 30
0.0
 11
34.443388331867
 21
73.86408464348698
 31
0.0
  0
LINE
  5
101
330
1F
100
AcDbEntity
  8
1
  6
Continuous
 62
     7
100
AcDbLine
 10
36.19956123374622
 20
81.30554573019148
 30
0.0
 11
34.16587801836721
 21
76.73781844197848
 31
0.0
  0
LINE
  5
102
330
1F
100
AcDbEntity
  8
1
  6
Continuous
 62
     7
100
AcDbLine
 10
34.77507043554536
 20
81.92493195726719
 30
0.0
 11
32.821414793099
 21
77.32240769000499
 31
0.0
  0
LINE
  5
103
330
1F
100
AcDbEntity
  8
1
  6
Continuous
 62
     7
100
AcDbLine
 10
33.33998681401616
 20
82.51936305644408
 30
0.0
 11
31.46695384693661
 21
77.88344378361015
 31
0.0
  0
LINE
  5
104
330
1F
100
AcDbEntity
  8
1
  6
Continuous
 62
     7
100
AcDbLine
 10
31.89474750953172
 20
83.08865795825095
 30
0.0
 11
30.10290776180522
 21
78.42075582576494
 31
0.0
  0
LINE
  5
105
330
1F
100
AcDbEntity
  8
1
  6
Continuous
 62
     7
100
AcDbLine
 10
43.14805620192399
 20
77.84115393540624
 30
0.0
 11
40.72400810069231
 21
73.46805539970926
 31
0.0
  0
LINE
  5
106
330
1F
100
AcDbEntity
  8
1
  6
Continuous
 62
     7
100
AcDbLine
 10
41.78296908794428
 20
78.58233576444451
 30
0.0
 11
39.43561127401482
 21
74.16759780014988
 31
0.0
  0
LINE
  5
107
330
1F
100
AcDbEntity
  8
1
  6
Continuous
 62
     7
100
AcDbLine
 10
40.40515447681965
 20
79.29958065276475
 30
0.0
 11
38.13520197812193
 21
74.84454803182292
 31
0.0
  0
LINE
  5
108
330
1F
100
AcDbEntity
  8
1
  6
Continuous
 62
     7
100
AcDbLine
 10
39.01503206422789
 20
79.99267012062587
 30
0.0
 11
36.8231763302825
 21
75.49869988913004
 31
0.0
  0
LINE
  5
109
330
1F
100
AcDbEntity
  8
1
  6
Continuous
 62
     7
100
AcDbLine
 10
44.49999999999999
 20
77.07626093681503
 30
0.0
 11
39.49999999999999
 21
68.41600689897065
 31
0.0
  0
LINE
  5
10A
330
1F
100
AcDbEntity
  8
1
  6
Continuous
 62
     7
100
AcDbLine
 10
51.0483028352431
 20
72.90453194172028
 30
0.0
 11
46.74647956261025
 21
66.76089160955284
 31
0.0
  0
LINE
  5
10B
330
1F
100
AcDbEntity
  8
1
  6
Continuous
 62
     7
100
AcDbLine
 10
49.76816840889646
 20
73.78434395739872
 30
0.0
 11
46.97220389154273
 21
69.6391560946235
 31
0.0
  0
LINE
  5
10C
330
1F
100
AcDbEntity
  8
1
  6
Continuous
 62
     7
100
AcDbLine
 10
48.47287411633741
 20
74.64168054714274
 30
0.0
 11
45.74967894126227
 21
70.44832770741561
 31
0.0
  0
LINE
  5
10D
330
1F
100
AcDbEntity
  8
1
  6
Continuous
 62
     7
100
AcDbLine
 10
47.16281451675524
 20
75.47628055792191
 30
0.0
 11
44.51321819558921
 21
71.23604007713978
 31
0.0
  0
LINE
  5
10E
330
1F
100
AcDbEntity
  8
1
  6
Continuous
 62
     7
100
AcDbLine
 10
45.83838866699482
 20
76.28788976248799
 30
0.0
 11
43.26319829244455
 21
72.00205325897744
 31
0.0
  0
LINE
  5
10F
330
1F
100
AcDbEntity
  8
1
  6
Continuous
 62
     7
100
AcDbLine
 10
56.00951480343554
 20
69.16599056967041
 30
0.0
 11
52.86291284818635
 21
65.28026076238555
 31
0.0
  0
LINE
  5
110
330
1F
100
AcDbEntity
  8
1
  6
Continuous
 62
     7
100
AcDbLine
 10
54.79387130398359
 20
70.13295707099826
 30
0.0
 11
51.7155639273553
 21
66.19290330296465
 31
0.0
  0
LINE
  5
111
330
1F
100
AcDbEntity
  8
1
  6
Continuous
 62
     7
100
AcDbLine
 10
53.5615370605323
 20
71.07856039420908
 30
0.0
 11
50.55246194477206
 21
67.08538284397261
 31
0.0
  0
LINE
  5
112
330
1F
100
AcDbEntity
  8
1
  6
Continuous
 62
     7
100
AcDbLine
 10
52.3128874540301
 20
72.00251249937034
 30
0.0
 11
49.37396119256774
 21
67.95742752749558
 31
0.0
  0
LINE
  5
113
330
1F
100
AcDbEntity
  8
1
  6
Continuous
 62
     7
100
AcDbLine
 10
57.20809726210199
 20
68.17795543758905
 30
0.0
 11
50.78022116523659
 21
60.51751100639926
 31
0.0
  0
LINE
  5
114
330
1F
100
AcDbEntity
  8
1
  6
Continuous
 62
     7
100
AcDbLine
 10
62.93250352560271
 20
62.93250352560273
 30
0.0
 11
57.62920266670362
 21
57.62920266670363
 31
0.0
  0
LINE
  5
115
330
1F
100
AcDbEntity
  8
1
  6
Continuous
 62
     7
100
AcDbLine
 10
61.82459497085075
 20
64.02124223013995
 30
0.0
 11
58.35130311855576
 21
60.4245432284467
 31
0.0
  0
LINE
  5
116
330
1F
100
AcDbEntity
  8
1
  6
Continuous
 62
     7
100
AcDbLine
 10
60.69785404556235
 20
65.09047944410618
 30
0.0
 11
57.28786224524987
 21
61.43371093601033
 31
0.0
  0
LINE
  5
117
330
1F
100
AcDbEntity
  8
1
  6
Continuous
 62
     7
100
AcDbLine
 10
59.55262396593837
 20
66.1398894674881
 30
0.0
 11
56.20697093414408
 21
62.42416534010113
 31
0.0
  0
LINE
  5
118
330
1F
100
AcDbEntity
  8
1
  6
Continuous
 62
     7
100
AcDbLine
 10
58.38925358015513
 20
67.16915263982671
 30
0.0
 11
55.1089584352026
 21
63.39560473871285
 31
0.0
  0
LINE
  5
119
330
1F
100
AcDbEntity
  8
1
  6
Continuous
 62
     7
100
AcDbLine
 10
67.16915263982671
 20
58.38925358015517
 30
0.0
 11
63.39560473871284
 21
55.10895843520262
 31
0.0
  0
LINE
  5
11A
330
1F
100
AcDbEntity
  8
1
  6
Continuous
 62
     7
100
AcDbLine
 10
66.13988946748809
 20
59.55262396593839
 30
0.0
 11
62.42416534010111
 21
56.2069709341441
 31
0.0
  0
LINE
  5
11B
330
1F
100
AcDbEntity
  8
1
  6
Continuous
 62
     7
100
AcDbLine
 10
65.09047944410617
 20
60.69785404556237
 30
0.0
 11
61.43371093601031
 21
57.28786224524989
 31
0.0
  0
LINE
  5
11C
330
1F
100
AcDbEntity
  8
1
  6
Continuous
 62
     7
100
AcDbLine
 10
64.02124223013995
 20
61.82459497085078
 30
0.0
 11
60.42454322844669
 21
58.35130311855578
 31
0.0
  0
LINE
  5
11D
330
1F
100
AcDbEntity
  8
1
  6
Continuous
 62
     7
100
AcDbLine
 10
68.17795543758903
 20
57.20809726210199
 30
0.0
 11
60.51751100639925
 21
50.7802211652366
 31
0.0
  0
LINE
  5
11E
330
1F
100
AcDbEntity
  8
1
  6
Continuous
 62
     7
100
AcDbLine
 10
72.90453194172025
 20
51.04830283524311
 30
0.0
 11
66.76089160955283
 21
46.74647956261026
 31
0.0
  0
LINE
  5
11F
330
1F
100
AcDbEntity
  8
1
  6
Continuous
 62
     7
100
AcDbLine
 10
72.00251249937033
 20
52.31288745403011
 30
0.0
 11
67.95742752749557
 21
49.37396119256774
 31
0.0
  0
LINE
  5
120
330
1F
100
AcDbEntity
  8
1
  6
Continuous
 62
     7
100
AcDbLine
 10
71.07856039420906
 20
53.5615370605323
 30
0.0
 11
67.0853828439726
 21
50.55246194477206
 31
0.0
  0
LINE
  5
121
330
1F
100
AcDbEntity
  8
1
  6
Continuous
 62
     7
100
AcDbLine
 10
70.13295707099824
 20
54.79387130398358
 30
0.0
 11
66.19290330296464
 21
51.7155639273553
 31
0.0
  0
LINE
  5
122
330
1F
100
AcDbEntity
  8
1
  6
Continuous
 62
     7
100
AcDbLine
 10
69.1659905696704
 20
56.00951480343553
 30
0.0
 11
65.28026076238555
 21
52.86291284818634
 31
0.0
  0
LINE
  5
123
330
1F
100
AcDbEntity
  8
1
  6
Continuous
 62
     7
100
AcDbLine
 10
76.28788976248799
 20
45.83838866699483
 30
0.0
 11
72.00205325897743
 21
43.26319829244456
 31
0.0
  0
LINE
  5
124
330
1F
100
AcDbEntity
  8
1
  6
Continuous
 62
     7
100
AcDbLine
 10
75.47628055792191
 20
47.16281451675525
 30
0.0
 11
71.23604007713978
 21
44.51321819558922
 31
0.0
  0
LINE
  5
125
330
1F
100
AcDbEntity
  8
1
  6
Continuous
 62
     7
100
AcDbLine
 10
74.64168054714273
 20
48.47287411633741
 30
0.0
 11
70.44832770741561
 21
45.74967894126228
 31
0.0
  0
LINE
  5
126
330
1F
100
AcDbEntity
  8
1
  6
Continuous
 62
     7
100
AcDbLine
 10
73.7843439573987
 20
49.76816840889647
 30
0.0
 11
69.6391560946235
 21
46.97220389154273
 31
0.0
  0
LINE
  5
127
330
1F
100
AcDbEntity
  8
1
  6
Continuous
 62
     7
100
AcDbLine
 10
77.07626093681503
 20
44.5
 30
0.0
 11
68.41600689897064
 21
39.5
 31
0.0
  0
LINE
  5
128
330
1F
100
AcDbEntity
  8
1
  6
Continuous
 62
     7
100
AcDbLine
 10
80.66139304626185
 20
37.61302529492226
 30
0.0
 11
73.86408464348699
 21
34.44338833186701
 31
0.0
  0
LINE
  5
129
330
1F
100
AcDbEntity
  8
1
  6
Continuous
 62
     7
100
AcDbLine
 10
79.29958065276473
 20
40.40515447681967
 30
0.0
 11
74.8445480318229
 21
38.13520197812193
 31
0.0
  0
LINE
  5
12A
330
1F
100
AcDbEntity
  8
1
  6
Continuous
 62
     7
100
AcDbLine
 10
78.58233576444449
 20
41.78296908794428
 30
0.0
 11
74.16759780014986
 21
39.43561127401483
 31
0.0
  0
LINE
  5
12B
330
1F
100
AcDbEntity
  8
1
  6
Continuous
 62
     7
100
AcDbLine
 10
77.84115393540621
 20
43.148056201924
 30
0.0
 11
73.46805539970923
 21
40.72400810069232
 31
0.0
  0
LINE
  5
12C
330
1F
100
AcDbEntity
  8
1
  6
Continuous
 62
     7
100
AcDbLine
 10
83.08865795825096
 20
31.89474750953173
 30
0.0
 11
78.42075582576496
 21
30.10290776180523
 31
0.0
  0
LINE
  5
12D
330
1F
100
AcDbEntity
  8
1
  6
Continuous
 62
     7
100
AcDbLine
 10
82.51936305644409
 20
33.33998681401618
 30
0.0
 11
77.88344378361016
 21
31.46695384693662
 31
0.0
  0
LINE
  5
12E
330
1F
100
AcDbEntity
  8
1
  6
Continuous
 62
     7
100
AcDbLine
 10
81.92493195726718
 20
34.77507043554537
 30
0.0
 11
77.32240769000499
 21
32.82141479309901
 31
0.0
  0
LINE
  5
12F
330
1F
100
AcDbEntity
  8
1
  6
Continuous
 62
     7
100
AcDbLine
 10
81.30554573019148
 20
36.19956123374622
 30
0.0
 11
76.73781844197848
 21
34.16587801836723
 31
0.0
  0
LINE
  5
130
330
1F
100
AcDbEntity
  8
1
  6
Continuous
 62
     7
100
AcDbLine
 10
83.63264324994586
 20
30.43979275598452
 30
0.0
 11
74.23571704208675
 21
27.01959132272783
 31
0.0
  0
LINE
  5
131
330
1F
100
AcDbEntity
  8
1
  6
Continuous
 62
     7
100
AcDbLine
 10
85.96739853972709
 20
23.03489501412436
 30
0.0
 11
78.72295484255906
 21
21.09375217585545
 31
0.0
  0
LINE
  5
132
330
1F
100
AcDbEntity
  8
1
  6
Continuous
 62
     7
100
AcDbLine
 10
85.55229093851038
 20
24.53172466771294
 30
0.0
 11
80.74598245881876
 21
23.15353788862794
 31
0.0
  0
LINE
  5
133
330
1F
100
AcDbEntity
  8
1
  6
Continuous
 62
     7
100
AcDbLine
 10
85.11112328071017
 20
26.02108172032358
 30
0.0
 11
80.32959950089496
 21
24.55922319670989
 31
0.0
  0
LINE
  5
134
330
1F
100
AcDbEntity
  8
1
  6
Continuous
 62
     7
100
AcDbLine
 10
84.64402995026869
 20
27.50251249937034
 30
0.0
 11
79.88874736879289
 21
25.95742752749559
 31
0.0
  0
LINE
  5
135
330
1F
100
AcDbEntity
  8
1
  6
Continuous
 62
     7
100
AcDbLine
 10
84.15115322833918
 20
28.97556574668695
 30
0.0
 11
79.4235603503426
 21
27.34772497440117
 31
0.0
  0
LINE
  5
136
330
1F
100
AcDbEntity
  8
1
  6
Continuous
 62
     7
100
AcDbLine
 10
87.36481932684214
 20
16.98200058851248
 30
0.0
 11
82.45668340960384
 21
16.02795561162975
 31
0.0
  0
LINE
  5
137
330
1F
100
AcDbEntity
  8
1
  6
Continuous
 62
     7
100
AcDbLine
 10
87.05513646530875
 20
18.50414048278058
 30
0.0
 11
82.16439846163973
 21
17.46458202869178
 31
0.0
  0
LINE
  5
138
330
1F
100
AcDbEntity
  8
1
  6
Continuous
 62
     7
100
AcDbLine
 10
86.71893576588594
 20
20.02064383660399
 30
0.0
 11
81.84708544195976
 21
18.89588856488466
 31
0.0
  0
LINE
  5
139
330
1F
100
AcDbEntity
  8
1
  6
Continuous
 62
     7
100
AcDbLine
 10
86.35631963856369
 20
21.53104870837044
 30
0.0
 11
81.50484100718369
 21
20.3214392303721
 31
0.0
  0
LINE
  5
13A
330
1F
100
AcDbEntity
  8
1
  6
Continuous
 62
     7
100
AcDbLine
 10
87.64789001808656
 20
15.4546878123568
 30
0.0
 11
77.79981248796446
 21
13.71820603568749
 31
0.0
  0
LINE
  5
13B
330
1F
100
AcDbEntity
  8
1
  6
Continuous
 62
     7
100
AcDbLine
 10
88.66132813016536
 20
7.75686110454157
 30
0.0
 11
81.18986789447733
 21
7.10319303393414
 31
0.0
  0
LINE
  5
13C
330
1F
100
AcDbEntity
  8
1
  6
Continuous
 62
     7
100
AcDbLine
 10
88.51244868777633
 20
9.30303323082116
 30
0.0
 11
83.53983921093496
 21
8.7803909144829
 31
0.0
  0
LINE
  5
13D
330
1F
100
AcDbEntity
  8
1
  6
Continuous
 62
     7
100
AcDbLine
 10
88.33660749607766
 20
10.84637156305812
 30
0.0
 11
83.37387673787104
 21
10.2370248460324
 31
0.0
  0
LINE
  5
13E
330
1F
100
AcDbEntity
  8
1
  6
Continuous
 62
     7
100
AcDbLine
 10
88.13385811799979
 20
12.38640598544582
 30
0.0
 11
83.18251777429191
 21
11.69054048064551
 31
0.0
  0
LINE
  5
13F
330
1F
100
AcDbEntity
  8
1
  6
Continuous
 62
     7
100
AcDbLine
 10
87.90426231296729
 20
13.92266738858054
 30
0.0
 11
82.96582060999161
 21
13.14049506337938
 31
0.0
  0
LINE
  5
140
330
1F
100
AcDbEntity
  8
1
  6
Continuous
 62
     7
100
AcDbLine
 10
88.98644486891885
 20
1.55326417291823
 30
0.0
 11
83.98720639313692
 21
1.46600214073181
 31
0.0
  0
LINE
  5
141
330
1F
100
AcDbEntity
  8
1
  6
Continuous
 62
     7
100
AcDbLine
 10
88.94578360469954
 20
3.10605520652258
 30
0.0
 11
83.94882946960408
 21
2.93155772301008
 31
0.0
  0
LINE
  5
142
330
1F
100
AcDbEntity
  8
1
  6
Continuous
 62
     7
100
AcDbLine
 10
88.87802859315708
 20
4.657900105622
 30
0.0
 11
83.88488091938423
 21
4.39622032440728
 31
0.0
  0
LINE
  5
143
330
1F
100
AcDbEntity
  8
1
  6
Continuous
 62
     7
100
AcDbLine
 10
88.78320047312437
 20
6.20832616322715
 30
0.0
 11
83.79538022182525
 21
5.85954379450652
 31
0.0
  0
LINE
  5
144
330
1F
100
AcDbEntity
  8
1
  6
Continuous
 62
     7
100
AcDbLine
 10
79.99267012062585
 20
39.0150320642279
 30
0.0
 11
75.49869988913002
 21
36.8231763302825
 31
0.0
  0
LINE
  5
145
330
1F
100
AcDbEntity
  8
1
  6
DOT_CENTER
 62
     7
100
AcDbLine
 10
5.00000000000001
 20
0.00000000000003
 30
0.0
 11
-4.99999999999998
 21
0.00000000000003
 31
0.0
  0
LINE
  5
146
330
1F
100
AcDbEntity
  8
1
  6
DOT_CENTER
 62
     7
100
AcDbLine
 10
-4.99999999999998
 20
0.00000000000003
 30
0.0
 11
5.00000000000001
 21
0.00000000000003
 31
0.0
  0
LINE
  5
147
330
1F
100
AcDbEntity
  8
1
  6
DOT_CENTER
 62
     7
100
AcDbLine
 10
0.00000000000002
 20
5.00000000000003
 30
0.0
 11
0.00000000000002
 21
-4.99999999999997
 31
0.0
  0
LINE
  5
148
330
1F
100
AcDbEntity
  8
1
  6
Continuous
 62
     7
100
AcDbLine
 10
-39.0150320642279
 20
79.99267012062585
 30
0.0
 11
-36.8231763302825
 21
75.49869988913002
 31
0.0
  0
LINE
  5
149
330
1F
100
AcDbEntity
  8
1
  6
Continuous
 62
     7
100
AcDbLine
 10
-6.20832616322715
 20
88.78320047312437
 30
0.0
 11
-5.85954379450652
 21
83.79538022182525
 31
0.0
  0
LINE
  5
14A
330
1F
100
AcDbEntity
  8
1
  6
Continuous
 62
     7
100
AcDbLine
 10
-4.657900105622
 20
88.87802859315708
 30
0.0
 11
-4.39622032440728
 21
83.88488091938423
 31
0.0
  0
LINE
  5
14B
330
1F
100
AcDbEntity
  8
1
  6
Continuous
 62
     7
100
AcDbLine
 10
-3.10605520652258
 20
88.94578360469954
 30
0.0
 11
-2.93155772301008
 21
83.94882946960408
 31
0.0
  0
LINE
  5
14C
330
1F
100
AcDbEntity
  8
1
  6
Continuous
 62
     7
100
AcDbLine
 10
-1.55326417291823
 20
88.98644486891885
 30
0.0
 11
-1.46600214073181
 21
83.98720639313692
 31
0.0
  0
LINE
  5
14D
330
1F
100
AcDbEntity
  8
1
  6
Continuous
 62
     7
100
AcDbLine
 10
-13.92266738858054
 20
87.90426231296729
 30
0.0
 11
-13.14049506337938
 21
82.96582060999161
 31
0.0
  0
LINE
  5
14E
330
1F
100
AcDbEntity
  8
1
  6
Continuous
 62
     7
100
AcDbLine
 10
-12.38640598544582
 20
88.13385811799979
 30
0.0
 11
-11.69054048064551
 21
83.18251777429191
 31
0.0
  0
LINE
  5
14F
330
1F
100
AcDbEntity
  8
1
  6
Continuous
 62
     7
100
AcDbLine
 10
-10.84637156305812
 20
88.33660749607766
 30
0.0
 11
-10.2370248460324
 21
83.37387673787104
 31
0.0
  0
LINE
  5
150
330
1F
100
AcDbEntity
  8
1
  6
Continuous
 62
     7
100
AcDbLine
 10
-9.30303323082116
 20
88.51244868777633
 30
0.0
 11
-8.7803909144829
 21
83.53983921093496
 31
0.0
  0
LINE
  5
151
330
1F
100
AcDbEntity
  8
1
  6
Continuous
 62
     7
100
AcDbLine
 10
-7.75686110454157
 20
88.66132813016536
 30
0.0
 11
-7.10319303393414
 21
81.18986789447733
 31
0.0
  0
LINE
  5
152
330
1F
100
AcDbEntity
  8
1
  6
Continuous
 62
     7
100
AcDbLine
 10
-15.4546878123568
 20
87.64789001808656
 30
0.0
 11
-13.71820603568749
 21
77.79981248796446
 31
0.0
  0
LINE
  5
153
330
1F
100
AcDbEntity
  8
1
  6
Continuous
 62
     7
100
AcDbLine
 10
-21.53104870837044
 20
86.35631963856369
 30
0.0
 11
-20.3214392303721
 21
81.50484100718369
 31
0.0
  0
LINE
  5
154
330
1F
100
AcDbEntity
  8
1
  6
Continuous
 62
     7
100
AcDbLine
 10
-20.02064383660399
 20
86.71893576588594
 30
0.0
 11
-18.89588856488466
 21
81.84708544195976
 31
0.0
  0
LINE
  5
155
330
1F
100
AcDbEntity
  8
1
  6
Continuous
 62
     7
100
AcDbLine
 10
-18.50414048278058
 20
87.05513646530875
 30
0.0
 11
-17.46458202869178
 21
82.16439846163973
 31
0.0
  0
LINE
  5
156
330
1F
100
AcDbEntity
  8
1
  6
Continuous
 62
     7
100
AcDbLine
 10
-16.98200058851248
 20
87.36481932684214
 30
0.0
 11
-16.02795561162975
 21
82.45668340960384
 31
0.0
  0
LINE
  5
157
330
1F
100
AcDbEntity
  8
1
  6
Continuous
 62
     7
100
AcDbLine
 10
-28.97556574668695
 20
84.15115322833918
 30
0.0
 11
-27.34772497440117
 21
79.4235603503426
 31
0.0
  0
LINE
  5
158
330
1F
100
AcDbEntity
  8
1
  6
Continuous
 62
     7
100
AcDbLine
 10
-27.50251249937034
 20
84.64402995026869
 30
0.0
 11
-25.95742752749559
 21
79.88874736879289
 31
0.0
  0
LINE
  5
159
330
1F
100
AcDbEntity
  8
1
  6
Continuous
 62
     7
100
AcDbLine
 10
-26.02108172032358
 20
85.11112328071017
 30
0.0
 11
-24.55922319670989
 21
80.32959950089496
 31
0.0
  0
LINE
  5
15A
330
1F
100
AcDbEntity
  8
1
  6
Continuous
 62
     7
100
AcDbLine
 10
-24.53172466771294
 20
85.55229093851038
 30
0.0
 11
-23.15353788862794
 21
80.74598245881876
 31
0.0
  0
LINE
  5
15B
330
1F
100
AcDbEntity
  8
1
  6
Continuous
 62
     7
100
AcDbLine
 10
-23.03489501412436
 20
85.96739853972709
 30
0.0
 11
-21.09375217585545
 21
78.72295484255906
 31
0.0
  0
LINE
  5
15C
330
1F
100
AcDbEntity
  8
1
  6
Continuous
 62
     7
100
AcDbLine
 10
-30.43979275598452
 20
83.63264324994586
 30
0.0
 11
-27.01959132272783
 21
74.23571704208675
 31
0.0
  0
LINE
  5
15D
330
1F
100
AcDbEntity
  8
1
  6
Continuous
 62
     7
100
AcDbLine
 10
-36.19956123374622
 20
81.30554573019148
 30
0.0
 11
-34.16587801836723
 21
76.73781844197848
 31
0.0
  0
LINE
  5
15E
330
1F
100
AcDbEntity
  8
1
  6
Continuous
 62
     7
100
AcDbLine
 10
-34.77507043554537
 20
81.92493195726718
 30
0.0
 11
-32.82141479309901
 21
77.32240769000499
 31
0.0
  0
LINE
  5
15F
330
1F
100
AcDbEntity
  8
1
  6
Continuous
 62
     7
100
AcDbLine
 10
-33.33998681401618
 20
82.51936305644409
 30
0.0
 11
-31.46695384693662
 21
77.88344378361016
 31
0.0
  0
LINE
  5
160
330
1F
100
AcDbEntity
  8
1
  6
Continuous
 62
     7
100
AcDbLine
 10
-31.89474750953173
 20
83.08865795825096
 30
0.0
 11
-30.10290776180523
 21
78.42075582576496
 31
0.0
  0
LINE
  5
161
330
1F
100
AcDbEntity
  8
1
  6
Continuous
 62
     7
100
AcDbLine
 10
-43.148056201924
 20
77.84115393540621
 30
0.0
 11
-40.72400810069232
 21
73.46805539970923
 31
0.0
  0
LINE
  5
162
330
1F
100
AcDbEntity
  8
1
  6
Continuous
 62
     7
100
AcDbLine
 10
-41.78296908794428
 20
78.58233576444449
 30
0.0
 11
-39.43561127401483
 21
74.16759780014986
 31
0.0
  0
LINE
  5
163
330
1F
100
AcDbEntity
  8
1
  6
Continuous
 62
     7
100
AcDbLine
 10
-40.40515447681967
 20
79.29958065276473
 30
0.0
 11
-38.13520197812193
 21
74.8445480318229
 31
0.0
  0
LINE
  5
164
330
1F
100
AcDbEntity
  8
1
  6
Continuous
 62
     7
100
AcDbLine
 10
-37.61302529492226
 20
80.66139304626185
 30
0.0
 11
-34.44338833186701
 21
73.86408464348699
 31
0.0
  0
LINE
  5
165
330
1F
100
AcDbEntity
  8
1
  6
Continuous
 62
     7
100
AcDbLine
 10
-44.5
 20
77.07626093681503
 30
0.0
 11
-39.5
 21
68.41600689897064
 31
0.0
  0
LINE
  5
166
330
1F
100
AcDbEntity
  8
1
  6
Continuous
 62
     7
100
AcDbLine
 10
-49.76816840889647
 20
73.7843439573987
 30
0.0
 11
-46.97220389154273
 21
69.6391560946235
 31
0.0
  0
LINE
  5
167
330
1F
100
AcDbEntity
  8
1
  6
Continuous
 62
     7
100
AcDbLine
 10
-48.47287411633741
 20
74.64168054714273
 30
0.0
 11
-45.74967894126228
 21
70.44832770741561
 31
0.0
  0
LINE
  5
168
330
1F
100
AcDbEntity
  8
1
  6
Continuous
 62
     7
100
AcDbLine
 10
-47.16281451675525
 20
75.47628055792191
 30
0.0
 11
-44.51321819558922
 21
71.23604007713978
 31
0.0
  0
LINE
  5
169
330
1F
100
AcDbEntity
  8
1
  6
Continuous
 62
     7
100
AcDbLine
 10
-45.83838866699483
 20
76.28788976248799
 30
0.0
 11
-43.26319829244456
 21
72.00205325897743
 31
0.0
  0
LINE
  5
16A
330
1F
100
AcDbEntity
  8
1
  6
Continuous
 62
     7
100
AcDbLine
 10
-56.00951480343553
 20
69.1659905696704
 30
0.0
 11
-52.86291284818634
 21
65.28026076238555
 31
0.0
  0
LINE
  5
16B
330
1F
100
AcDbEntity
  8
1
  6
Continuous
 62
     7
100
AcDbLine
 10
-54.79387130398358
 20
70.13295707099824
 30
0.0
 11
-51.7155639273553
 21
66.19290330296464
 31
0.0
  0
LINE
  5
16C
330
1F
100
AcDbEntity
  8
1
  6
Continuous
 62
     7
100
AcDbLine
 10
-53.5615370605323
 20
71.07856039420906
 30
0.0
 11
-50.55246194477206
 21
67.0853828439726
 31
0.0
  0
LINE
  5
16D
330
1F
100
AcDbEntity
  8
1
  6
Continuous
 62
     7
100
AcDbLine
 10
-52.31288745403011
 20
72.00251249937033
 30
0.0
 11
-49.37396119256774
 21
67.95742752749557
 31
0.0
  0
LINE
  5
16E
330
1F
100
AcDbEntity
  8
1
  6
Continuous
 62
     7
100
AcDbLine
 10
-51.04830283524311
 20
72.90453194172025
 30
0.0
 11
-46.74647956261026
 21
66.76089160955283
 31
0.0
  0
LINE
  5
16F
330
1F
100
AcDbEntity
  8
1
  6
Continuous
 62
     7
100
AcDbLine
 10
-57.20809726210199
 20
68.17795543758903
 30
0.0
 11
-50.7802211652366
 21
60.51751100639925
 31
0.0
  0
LINE
  5
170
330
1F
100
AcDbEntity
  8
1
  6
Continuous
 62
     7
100
AcDbLine
 10
-61.82459497085078
 20
64.02124223013995
 30
0.0
 11
-58.35130311855578
 21
60.42454322844669
 31
0.0
  0
LINE
  5
171
330
1F
100
AcDbEntity
  8
1
  6
Continuous
 62
     7
100
AcDbLine
 10
-60.69785404556237
 20
65.09047944410617
 30
0.0
 11
-57.28786224524989
 21
61.43371093601031
 31
0.0
  0
LINE
  5
172
330
1F
100
AcDbEntity
  8
1
  6
Continuous
 62
     7
100
AcDbLine
 10
-59.55262396593839
 20
66.13988946748809
 30
0.0
 11
-56.2069709341441
 21
62.42416534010111
 31
0.0
  0
LINE
  5
173
330
1F
100
AcDbEntity
  8
1
  6
Continuous
 62
     7
100
AcDbLine
 10
-58.38925358015517
 20
67.16915263982671
 30
0.0
 11
-55.10895843520262
 21
63.39560473871284
 31
0.0
  0
LINE
  5
174
330
1F
100
AcDbEntity
  8
1
  6
Continuous
 62
     7
100
AcDbLine
 10
-67.16915263982671
 20
58.38925358015513
 30
0.0
 11
-63.39560473871285
 21
55.1089584352026
 31
0.0
  0
LINE
  5
175
330
1F
100
AcDbEntity
  8
1
  6
Continuous
 62
     7
100
AcDbLine
 10
-66.1398894674881
 20
59.55262396593837
 30
0.0
 11
-62.42416534010113
 21
56.20697093414408
 31
0.0
  0
LINE
  5
176
330
1F
100
AcDbEntity
  8
1
  6
Continuous
 62
     7
100
AcDbLine
 10
-65.09047944410618
 20
60.69785404556235
 30
0.0
 11
-61.43371093601033
 21
57.28786224524987
 31
0.0
  0
LINE
  5
177
330
1F
100
AcDbEntity
  8
1
  6
Continuous
 62
     7
100
AcDbLine
 10
-64.02124223013995
 20
61.82459497085075
 30
0.0
 11
-60.4245432284467
 21
58.35130311855576
 31
0.0
  0
LINE
  5
178
330
1F
100
AcDbEntity
  8
1
  6
Continuous
 62
     7
100
AcDbLine
 10
-62.93250352560273
 20
62.93250352560271
 30
0.0
 11
-57.62920266670363
 21
57.62920266670362
 31
0.0
  0
LINE
  5
179
330
1F
100
AcDbEntity
  8
1
  6
Continuous
 62
     7
100
AcDbLine
 10
-68.17795543758905
 20
57.20809726210199
 30
0.0
 11
-60.51751100639926
 21
50.78022116523659
 31
0.0
  0
LINE
  5
17A
330
1F
100
AcDbEntity
  8
1
  6
Continuous
 62
     7
100
AcDbLine
 10
-72.00251249937034
 20
52.3128874540301
 30
0.0
 11
-67.95742752749558
 21
49.37396119256774
 31
0.0
  0
LINE
  5
17B
330
1F
100
AcDbEntity
  8
1
  6
Continuous
 62
     7
100
AcDbLine
 10
-71.07856039420908
 20
53.5615370605323
 30
0.0
 11
-67.08538284397261
 21
50.55246194477206
 31
0.0
  0
LINE
  5
17C
330
1F
100
AcDbEntity
  8
1
  6
Continuous
 62
     7
100
AcDbLine
 10
-70.13295707099826
 20
54.79387130398359
 30
0.0
 11
-66.19290330296465
 21
51.7155639273553
 31
0.0
  0
LINE
  5
17D
330
1F
100
AcDbEntity
  8
1
  6
Continuous
 62
     7
100
AcDbLine
 10
-69.16599056967041
 20
56.00951480343554
 30
0.0
 11
-65.28026076238555
 21
52.86291284818635
 31
0.0
  0
LINE
  5
17E
330
1F
100
AcDbEntity
  8
1
  6
Continuous
 62
     7
100
AcDbLine
 10
-76.28788976248799
 20
45.83838866699482
 30
0.0
 11
-72.00205325897744
 21
43.26319829244455
 31
0.0
  0
LINE
  5
17F
330
1F
100
AcDbEntity
  8
1
  6
Continuous
 62
     7
100
AcDbLine
 10
-75.47628055792191
 20
47.16281451675524
 30
0.0
 11
-71.23604007713978
 21
44.51321819558921
 31
0.0
  0
LINE
  5
180
330
1F
100
AcDbEntity
  8
1
  6
Continuous
 62
     7
100
AcDbLine
 10
-74.64168054714274
 20
48.47287411633741
 30
0.0
 11
-70.44832770741561
 21
45.74967894126227
 31
0.0
  0
LINE
  5
181
330
1F
100
AcDbEntity
  8
1
  6
Continuous
 62
     7
100
AcDbLine
 10
-73.78434395739872
 20
49.76816840889646
 30
0.0
 11
-69.6391560946235
 21
46.97220389154273
 31
0.0
  0
LINE
  5
182
330
1F
100
AcDbEntity
  8
1
  6
Continuous
 62
     7
100
AcDbLine
 10
-72.90453194172028
 20
51.0483028352431
 30
0.0
 11
-66.76089160955284
 21
46.74647956261025
 31
0.0
  0
LINE
  5
183
330
1F
100
AcDbEntity
  8
1
  6
Continuous
 62
     7
100
AcDbLine
 10
-77.07626093681503
 20
44.49999999999999
 30
0.0
 11
-68.41600689897065
 21
39.49999999999999
 31
0.0
  0
LINE
  5
184
330
1F
100
AcDbEntity
  8
1
  6
Continuous
 62
     7
100
AcDbLine
 10
-79.99267012062587
 20
39.01503206422789
 30
0.0
 11
-75.49869988913004
 21
36.8231763302825
 31
0.0
  0
LINE
  5
185
330
1F
100
AcDbEntity
  8
1
  6
Continuous
 62
     7
100
AcDbLine
 10
-79.29958065276475
 20
40.40515447681966
 30
0.0
 11
-74.84454803182292
 21
38.13520197812193
 31
0.0
  0
LINE
  5
186
330
1F
100
AcDbEntity
  8
1
  6
Continuous
 62
     7
100
AcDbLine
 10
-78.58233576444451
 20
41.78296908794428
 30
0.0
 11
-74.16759780014988
 21
39.43561127401482
 31
0.0
  0
LINE
  5
187
330
1F
100
AcDbEntity
  8
1
  6
Continuous
 62
     7
100
AcDbLine
 10
-77.84115393540624
 20
43.14805620192399
 30
0.0
 11
-73.46805539970926
 21
40.72400810069231
 31
0.0
  0
LINE
  5
188
330
1F
100
AcDbEntity
  8
1
  6
Continuous
 62
     7
100
AcDbLine
 10
-83.08865795825095
 20
31.89474750953172
 30
0.0
 11
-78.42075582576494
 21
30.10290776180522
 31
0.0
  0
LINE
  5
189
330
1F
100
AcDbEntity
  8
1
  6
Continuous
 62
     7
100
AcDbLine
 10
-82.51936305644408
 20
33.33998681401616
 30
0.0
 11
-77.88344378361015
 21
31.46695384693661
 31
0.0
  0
LINE
  5
18A
330
1F
100
AcDbEntity
  8
1
  6
Continuous
 62
     7
100
AcDbLine
 10
-81.92493195726719
 20
34.77507043554536
 30
0.0
 11
-77.32240769000499
 21
32.821414793099
 31
0.0
  0
LINE
  5
18B
330
1F
100
AcDbEntity
  8
1
  6
Continuous
 62
     7
100
AcDbLine
 10
-81.30554573019148
 20
36.19956123374622
 30
0.0
 11
-76.73781844197848
 21
34.16587801836721
 31
0.0
  0
LINE
  5
18C
330
1F
100
AcDbEntity
  8
1
  6
Continuous
 62
     7
100
AcDbLine
 10
-80.66139304626185
 20
37.61302529492225
 30
0.0
 11
-73.86408464348698
 21
34.443388331867
 31
0.0
  0
LINE
  5
18D
330
1F
100
AcDbEntity
  8
1
  6
Continuous
 62
     7
100
AcDbLine
 10
-83.63264324994584
 20
30.43979275598451
 30
0.0
 11
-74.23571704208676
 21
27.01959132272782
 31
0.0
  0
LINE
  5
18E
330
1F
100
AcDbEntity
  8
1
  6
Continuous
 62
     7
100
AcDbLine
 10
-85.5522909385104
 20
24.53172466771293
 30
0.0
 11
-80.74598245881879
 21
23.15353788862793
 31
0.0
  0
LINE
  5
18F
330
1F
100
AcDbEntity
  8
1
  6
Continuous
 62
     7
100
AcDbLine
 10
-85.11112328071017
 20
26.02108172032357
 30
0.0
 11
-80.329599500895
 21
24.55922319670989
 31
0.0
  0
LINE
  5
190
330
1F
100
AcDbEntity
  8
1
  6
Continuous
 62
     7
100
AcDbLine
 10
-84.64402995026869
 20
27.50251249937033
 30
0.0
 11
-79.88874736879291
 21
25.95742752749559
 31
0.0
  0
LINE
  5
191
330
1F
100
AcDbEntity
  8
1
  6
Continuous
 62
     7
100
AcDbLine
 10
-84.15115322833921
 20
28.97556574668695
 30
0.0
 11
-79.42356035034261
 21
27.34772497440116
 31
0.0
  0
LINE
  5
192
330
1F
100
AcDbEntity
  8
1
  6
Continuous
 62
     7
100
AcDbLine
 10
-87.3648193268421
 20
16.98200058851249
 30
0.0
 11
-82.45668340960378
 21
16.02795561162976
 31
0.0
  0
LINE
  5
193
330
1F
100
AcDbEntity
  8
1
  6
Continuous
 62
     7
100
AcDbLine
 10
-87.05513646530871
 20
18.50414048278058
 30
0.0
 11
-82.16439846163968
 21
17.46458202869178
 31
0.0
  0
LINE
  5
194
330
1F
100
AcDbEntity
  8
1
  6
Continuous
 62
     7
100
AcDbLine
 10
-86.71893576588594
 20
20.02064383660398
 30
0.0
 11
-81.84708544195976
 21
18.89588856488466
 31
0.0
  0
LINE
  5
195
330
1F
100
AcDbEntity
  8
1
  6
Continuous
 62
     7
100
AcDbLine
 10
-86.35631963856369
 20
21.53104870837043
 30
0.0
 11
-81.5048410071837
 21
20.32143923037209
 31
0.0
  0
LINE
  5
196
330
1F
100
AcDbEntity
  8
1
  6
Continuous
 62
     7
100
AcDbLine
 10
-85.96739853972709
 20
23.03489501412434
 30
0.0
 11
-78.72295484255908
 21
21.09375217585544
 31
0.0
  0
LINE
  5
197
330
1F
100
AcDbEntity
  8
1
  6
Continuous
 62
     7
100
AcDbLine
 10
-87.64789001808651
 20
15.4546878123568
 30
0.0
 11
-77.79981248796443
 21
13.7182060356875
 31
0.0
  0
LINE
  5
198
330
1F
100
AcDbEntity
  8
1
  6
Continuous
 62
     7
100
AcDbLine
 10
-88.51244868777634
 20
9.30303323082116
 30
0.0
 11
-83.53983921093497
 21
8.78039091448289
 31
0.0
  0
LINE
  5
199
330
1F
100
AcDbEntity
  8
1
  6
Continuous
 62
     7
100
AcDbLine
 10
-88.33660749607768
 20
10.84637156305813
 30
0.0
 11
-83.37387673787107
 21
10.23702484603239
 31
0.0
  0
LINE
  5
19A
330
1F
100
AcDbEntity
  8
1
  6
Continuous
 62
     7
100
AcDbLine
 10
-88.13385811799978
 20
12.38640598544583
 30
0.0
 11
-83.18251777429192
 21
11.6905404806455
 31
0.0
  0
LINE
  5
19B
330
1F
100
AcDbEntity
  8
1
  6
Continuous
 62
     7
100
AcDbLine
 10
-87.90426231296728
 20
13.92266738858055
 30
0.0
 11
-82.96582060999158
 21
13.14049506337939
 31
0.0
  0
LINE
  5
19C
330
1F
100
AcDbEntity
  8
1
  6
Continuous
 62
     7
100
AcDbLine
 10
-88.98644486891882
 20
1.55326417291823
 30
0.0
 11
-83.98720639313687
 21
1.46600214073181
 31
0.0
  0
LINE
  5
19D
330
1F
100
AcDbEntity
  8
1
  6
Continuous
 62
     7
100
AcDbLine
 10
-88.94578360469953
 20
3.10605520652259
 30
0.0
 11
-83.94882946960405
 21
2.93155772301008
 31
0.0
  0
LINE
  5
19E
330
1F
100
AcDbEntity
  8
1
  6
Continuous
 62
     7
100
AcDbLine
 10
-88.87802859315708
 20
4.657900105622
 30
0.0
 11
-83.88488091938422
 21
4.39622032440728
 31
0.0
  0
LINE
  5
19F
330
1F
100
AcDbEntity
  8
1
  6
Continuous
 62
     7
100
AcDbLine
 10
-88.78320047312437
 20
6.20832616322715
 30
0.0
 11
-83.79538022182524
 21
5.85954379450652
 31
0.0
  0
LINE
  5
1A0
330
1F
100
AcDbEntity
  8
1
  6
Continuous
 62
     7
100
AcDbLine
 10
-88.66132813016536
 20
7.75686110454158
 30
0.0
 11
-81.18986789447727
 21
7.10319303393414
 31
0.0
  0
LINE
  5
1A1
330
1F
100
AcDbEntity
  8
1
  6
Continuous
 62
     7
100
AcDbLine
 10
-89.0
 20
0.0
 30
0.0
 11
-79.0
 21
0.0
 31
0.0
  0
CIRCLE
  5
1A2
330
1F
100
AcDbEntity
  8
1
  6
Continuous
 62
     7
100
AcDbCircle
 10
0.0
 20
0.0
 30
0.0
 40
89.0
  0
ENDSEC
  0
SECTION
  2
OBJECTS
  0
DICTIONARY
  5
C
330
0
100
AcDbDictionary
281
     1
  3
ACAD_GROUP
350
D
  3
ACAD_LAYOUT
350
1A
  3
ACAD_MLINESTYLE
350
17
  3
ACAD_PLOTSETTINGS
350
19
  3
ACAD_PLOTSTYLENAME
350
E
  3
ACAD_TABLESTYLE
350
2A
  3
AcDbVariableDictionary
350
2C
  0
DICTIONARY
  5
D
102
{ACAD_REACTORS
330
C
102
}
330
C
100
AcDbDictionary
281
     1
  0
DICTIONARY
  5
1A
102
{ACAD_REACTORS
330
C
102
}
330
C
100
AcDbDictionary
281
     1
  3
Layout1
350
1E
  3
Layout2
350
26
  3
Model
350
22
  0
DICTIONARY
  5
17
102
{ACAD_REACTORS
330
C
102
}
330
C
100
AcDbDictionary
281
     1
  3
Standard
350
18
  0
DICTIONARY
  5
19
102
{ACAD_REACTORS
330
C
102
}
330
C
100
AcDbDictionary
281
     1
  0
ACDBDICTIONARYWDFLT
  5
E
102
{ACAD_REACTORS
330
C
102
}
330
C
100
AcDbDictionary
281
     1
  3
Normal
350
F
100
AcDbDictionaryWithDefault
340
F
  0
DICTIONARY
  5
2A
102
{ACAD_REACTORS
330
C
102
}
330
C
100
AcDbDictionary
281
     1
  3
Standard
350
2B
  0
DICTIONARY
  5
2C
102
{ACAD_REACTORS
330
C
102
}
330
C
100
AcDbDictionary
281
     1
  3
CTABLESTYLE
350
2D
  0
LAYOUT
  5
1E
102
{ACAD_REACTORS
330
1A
102
}
330
1A
100
AcDbPlotSettings
  1

  2

  4

  6

 40
0.0
 41
0.0
 42
0.0
 43
0.0
 44
0.0
 45
0.0
 46
0.0
 47
0.0
 48
0.0
 49
0.0
140
0.0
141
0.0
142
1.0
143
1.0
 70
   688
 72
     0
 73
     0
 74
     5
  7

 75
    16
147
1.0
148
0.0
149
0.0
100
AcDbLayout
  1
Layout1
 70
     1
 71
     1
 10
0.0
 20
0.0
 11
12.0
 21
9.0
 12
0.0
 22
0.0
 32
0.0
 14
1.00000000000000E+20
 24
1.00000000000000E+20
 34
1.00000000000000E+20
 15
-1.00000000000000E+20
 25
-1.00000000000000E+20
 35
-1.00000000000000E+20
146
0.0
 13
0.0
 23
0.0
 33
0.0
 16
1.0
 26
0.0
 36
0.0
 17
0.0
 27
1.0
 37
0.0
 76
     0
330
1B
  0
LAYOUT
  5
26
102
{ACAD_REACTORS
330
1A
102
}
330
1A
100
AcDbPlotSettings
  1

  2

  4

  6

 40
0.0
 41
0.0
 42
0.0
 43
0.0
 44
0.0
 45
0.0
 46
0.0
 47
0.0
 48
0.0
 49
0.0
140
0.0
141
0.0
142
1.0
143
1.0
 70
   688
 72
     0
 73
     0
 74
     5
  7

 75
    16
147
1.0
148
0.0
149
0.0
100
AcDbLayout
  1
Layout2
 70
     1
 71
     2
 10
0.0
 20
0.0
 11
0.0
 21
0.0
 12
0.0
 22
0.0
 32
0.0
 14
0.0
 24
0.0
 34
0.0
 15
0.0
 25
0.0
 35
0.0
146
0.0
 13
0.0
 23
0.0
 33
0.0
 16
1.0
 26
0.0
 36
0.0
 17
0.0
 27
1.0
 37
0.0
 76
     0
330
23
  0
LAYOUT
  5
22
102
{ACAD_REACTORS
330
1A
102
}
330
1A
100
AcDbPlotSettings
  1

  2

  4

  6

 40
0.0
 41
0.0
 42
0.0
 43
0.0
 44
0.0
 45
0.0
 46
0.0
 47
0.0
 48
0.0
 49
0.0
140
0.0
141
0.0
142
1.0
143
1.0
 70
  1712
 72
     0
 73
     0
 74
     0
  7

 75
     0
147
1.0
148
0.0
149
0.0
100
AcDbLayout
  1
Model
 70
     1
 71
     0
 10
0.0
 20
0.0
 11
0.0
 21
0.0
 12
0.0
 22
0.0
 32
0.0
 14
-89.0
 24
-89.0
 34
0.0
 15
89.0
 25
89.0
 35
0.0
146
0.0
 13
0.0
 23
0.0
 33
0.0
 16
1.0
 26
0.0
 36
0.0
 17
0.0
 27
1.0
 37
0.0
 76
     0
330
1F
  0
MLINESTYLE
  5
18
102
{ACAD_REACTORS
330
17
102
}
330
17
100
AcDbMlineStyle
  2
Standard
 70
     0
  3

 62
   256
 51
90.0
 52
90.0
 71
     2
 49
0.5
 62
   256
  6
BYLAYER
 49
-0.5
 62
   256
  6
BYLAYER
  0
ACDBPLACEHOLDER
  5
F
102
{ACAD_REACTORS
330
E
102
}
330
E
  0
TABLESTYLE
  5
2B
102
{ACAD_REACTORS
330
2A
102
}
330
2A
100
AcDbTableStyle
  3
Standard
 70
     0
 71
     0
 40
0.06
 41
0.06
280
     0
281
     0
  7
Standard
140
0.18
170
     2
 62
     0
 63
     7
283
     0
274
    -2
284
     1
 64
     0
275
    -2
285
     1
 65
     0
276
    -2
286
     1
 66
     0
277
    -2
287
     1
 67
     0
278
    -2
288
     1
 68
     0
279
    -2
289
     1
 69
     0
  7
Standard
140
0.25
170
     5
 62
     0
 63
     7
283
     0
274
    -2
284
     1
 64
     0
275
    -2
285
     1
 65
     0
276
    -2
286
     1
 66
     0
277
    -2
287
     1
 67
     0
278
    -2
288
     1
 68
     0
279
    -2
289
     1
 69
     0
  7
Standard
140
0.18
170
     5
 62
     0
 63
     7
283
     0
274
    -2
284
     1
 64
     0
275
    -2
285
     1
 65
     0
276
    -2
286
     1
 66
     0
277
    -2
287
     1
 67
     0
278
    -2
288
     1
 68
     0
279
    -2
289
     1
 69
     0
  0
DICTIONARYVAR
  5
2D
102
{ACAD_REACTORS
330
2C
102
}
330
2C
100
DictionaryVariables
280
     0
  1
Standard
  0
ENDSEC
  0
EOF
