  0
SECTION
  2
HEADER
  9
$ACADVER
  1
AC1015
  9
$ACADMAINTVER
 70
     6
  9
$DWGCODEPAGE
  3
ANSI_1252
  9
$INSBASE
 10
0.0
 20
0.0
 30
0.0
  9
$EXTMIN
 10
-89.0
 20
-89.0
 30
0.0
  9
$EXTMAX
 10
89.0
 20
89.00000000000001
 30
0.0
  9
$LIMMIN
 10
0.0
 20
0.0
  9
$LIMMAX
 10
12.0
 20
9.0
  9
$ORTHOMODE
 70
     0
  9
$REGENMODE
 70
     1
  9
$FILLMODE
 70
     1
  9
$QTEXTMODE
 70
     0
  9
$MIRRTEXT
 70
     1
  9
$LTSCALE
 40
1.0
  9
$ATTMODE
 70
     1
  9
$TEXTSIZE
 40
0.2
  9
$TRACEWID
 40
0.05
  9
$TEXTSTYLE
  7
Standard
  9
$CLAYER
  8
0
  9
$CELTYPE
  6
ByLayer
  9
$CECOLOR
 62
   256
  9
$CELTSCALE
 40
1.0
  9
$DISPSILH
 70
     0
  9
$DIMSCALE
 40
1.0
  9
$DIMASZ
 40
0.18
  9
$DIMEXO
 40
0.0625
  9
$DIMDLI
 40
0.38
  9
$DIMRND
 40
0.0
  9
$DIMDLE
 40
0.0
  9
$DIMEXE
 40
0.18
  9
$DIMTP
 40
0.0
  9
$DIMTM
 40
0.0
  9
$DIMTXT
 40
0.18
  9
$DIMCEN
 40
0.09
  9
$DIMTSZ
 40
0.0
  9
$DIMTOL
 70
     0
  9
$DIMLIM
 70
     0
  9
$DIMTIH
 70
     1
  9
$DIMTOH
 70
     1
  9
$DIMSE1
 70
     0
  9
$DIMSE2
 70
     0
  9
$DIMTAD
 70
     0
  9
$DIMZIN
 70
     0
  9
$DIMBLK
  1

  9
$DIMASO
 70
     1
  9
$DIMSHO
 70
     1
  9
$DIMPOST
  1

  9
$DIMAPOST
  1

  9
$DIMALT
 70
     0
  9
$DIMALTD
 70
     2
  9
$DIMALTF
 40
25.4
  9
$DIMLFAC
 40
1.0
  9
$DIMTOFL
 70
     0
  9
$DIMTVP
 40
0.0
  9
$DIMTIX
 70
     0
  9
$DIMSOXD
 70
     0
  9
$DIMSAH
 70
     0
  9
$DIMBLK1
  1

  9
$DIMBLK2
  1

  9
$DIMSTYLE
  2
Standard
  9
$DIMCLRD
 70
     0
  9
$DIMCLRE
 70
     0
  9
$DIMCLRT
 70
     0
  9
$DIMTFAC
 40
1.0
  9
$DIMGAP
 40
0.09
  9
$DIMJUST
 70
     0
  9
$DIMSD1
 70
     0
  9
$DIMSD2
 70
     0
  9
$DIMTOLJ
 70
     1
  9
$DIMTZIN
 70
     0
  9
$DIMALTZ
 70
     0
  9
$DIMALTTZ
 70
     0
  9
$DIMUPT
 70
     0
  9
$DIMDEC
 70
     4
  9
$DIMTDEC
 70
     4
  9
$DIMALTU
 70
     2
  9
$DIMALTTD
 70
     2
  9
$DIMTXSTY
  7
Standard
  9
$DIMAUNIT
 70
     0
  9
$DIMADEC
 70
     0
  9
$DIMALTRND
 40
0.0
  9
$DIMAZIN
 70
     0
  9
$DIMDSEP
 70
    46
  9
$DIMATFIT
 70
     3
  9
$DIMFRAC
 70
     0
  9
$DIMLDRBLK
  1

  9
$DIMLUNIT
 70
     2
  9
$DIMLWD
 70
    -2
  9
$DIMLWE
 70
    -2
  9
$DIMTMOVE
 70
     0
  9
$LUNITS
 70
     2
  9
$LUPREC
 70
     4
  9
$SKETCHINC
 40
0.1
  9
$FILLETRAD
 40
0.5
  9
$AUNITS
 70
     0
  9
$AUPREC
 70
     0
  9
$MENU
  1
.
  9
$ELEVATION
 40
0.0
  9
$PELEVATION
 40
0.0
  9
$THICKNESS
 40
0.0
  9
$LIMCHECK
 70
     0
  9
$CHAMFERA
 40
0.5
  9
$CHAMFERB
 40
0.5
  9
$CHAMFERC
 40
1.0
  9
$CHAMFERD
 40
0.0
  9
$SKPOLY
 70
     0
  9
$TDCREATE
 40
2453657.329106366
  9
$TDUCREATE
 40
2453657.287439699
  9
$TDUPDATE
 40
2453657.329106377
  9
$TDUUPDATE
 40
2453657.28743971
  9
$TDINDWG
 40
0.0000000116
  9
$TDUSRTIMER
 40
0.0000000116
  9
$USRTIMER
 70
     1
  9
$ANGBASE
 50
0.0
  9
$ANGDIR
 70
     0
  9
$PDMODE
 70
     0
  9
$PDSIZE
 40
0.0
  9
$PLINEWID
 40
0.0
  9
$SPLFRAME
 70
     0
  9
$SPLINETYPE
 70
     6
  9
$SPLINESEGS
 70
     8
  9
$HANDSEED
  5
1A2
  9
$SURFTAB1
 70
     6
  9
$SURFTAB2
 70
     6
  9
$SURFTYPE
 70
     6
  9
$SURFU
 70
     6
  9
$SURFV
 70
     6
  9
$UCSBASE
  2

  9
$UCSNAME
  2

  9
$UCSORG
 10
0.0
 20
0.0
 30
0.0
  9
$UCSXDIR
 10
1.0
 20
0.0
 30
0.0
  9
$UCSYDIR
 10
0.0
 20
1.0
 30
0.0
  9
$UCSORTHOREF
  2

  9
$UCSORTHOVIEW
 70
     0
  9
$UCSORGTOP
 10
0.0
 20
0.0
 30
0.0
  9
$UCSORGBOTTOM
 10
0.0
 20
0.0
 30
0.0
  9
$UCSORGLEFT
 10
0.0
 20
0.0
 30
0.0
  9
$UCSORGRIGHT
 10
0.0
 20
0.0
 30
0.0
  9
$UCSORGFRONT
 10
0.0
 20
0.0
 30
0.0
  9
$UCSORGBACK
 10
0.0
 20
0.0
 30
0.0
  9
$PUCSBASE
  2

  9
$PUCSNAME
  2

  9
$PUCSORG
 10
0.0
 20
0.0
 30
0.0
  9
$PUCSXDIR
 10
1.0
 20
0.0
 30
0.0
  9
$PUCSYDIR
 10
0.0
 20
1.0
 30
0.0
  9
$PUCSORTHOREF
  2

  9
$PUCSORTHOVIEW
 70
     0
  9
$PUCSORGTOP
 10
0.0
 20
0.0
 30
0.0
  9
$PUCSORGBOTTOM
 10
0.0
 20
0.0
 30
0.0
  9
$PUCSORGLEFT
 10
0.0
 20
0.0
 30
0.0
  9
$PUCSORGRIGHT
 10
0.0
 20
0.0
 30
0.0
  9
$PUCSORGFRONT
 10
0.0
 20
0.0
 30
0.0
  9
$PUCSORGBACK
 10
0.0
 20
0.0
 30
0.0
  9
$USERI1
 70
     0
  9
$USERI2
 70
     0
  9
$USERI3
 70
     0
  9
$USERI4
 70
     0
  9
$USERI5
 70
     0
  9
$USERR1
 40
13.01
  9
$USERR2
 40
0.0
  9
$USERR3
 40
0.0
  9
$USERR4
 40
0.0
  9
$USERR5
 40
0.0
  9
$WORLDVIEW
 70
     1
  9
$SHADEDGE
 70
     3
  9
$SHADEDIF
 70
    70
  9
$TILEMODE
 70
     1
  9
$MAXACTVP
 70
    64
  9
$PINSBASE
 10
0.0
 20
0.0
 30
0.0
  9
$PLIMCHECK
 70
     0
  9
$PEXTMIN
 10
1.00000000000000E+20
 20
1.00000000000000E+20
 30
1.00000000000000E+20
  9
$PEXTMAX
 10
-1.00000000000000E+20
 20
-1.00000000000000E+20
 30
-1.00000000000000E+20
  9
$PLIMMIN
 10
0.0
 20
0.0
  9
$PLIMMAX
 10
12.0
 20
9.0
  9
$UNITMODE
 70
     0
  9
$VISRETAIN
 70
     1
  9
$PLINEGEN
 70
     0
  9
$PSLTSCALE
 70
     1
  9
$TREEDEPTH
 70
  3020
  9
$CMLSTYLE
  2
Standard
  9
$CMLJUST
 70
     0
  9
$CMLSCALE
 40
1.0
  9
$PROXYGRAPHICS
 70
     1
  9
$MEASUREMENT
 70
     1
  9
$CELWEIGHT
370
    -1
  9
$ENDCAPS
280
     0
  9
$JOINSTYLE
280
     0
  9
$LWDISPLAY
290
     0
  9
$INSUNITS
 70
     1
  9
$HYPERLINKBASE
  1

  9
$STYLESHEET
  1

  9
$XEDIT
290
     1
  9
$CEPSNTYPE
380
     0
  9
$PSTYLEMODE
290
     0
  9
$FINGERPRINTGUID
  2
{FAEB1C30-E019-11D5-929B-00C0DF256EC4}
  9
$VERSIONGUID
  2
{FAEB1C32-E019-11D5-929B-00C0DF256EC4}
  9
$EXTNAMES
290
     1
  9
$PSVPSCALE
 40
0.0
  9
$OLESTARTUP
290
     0
  0
ENDSEC
  0
SECTION
  2
CLASSES
  0
CLASS
  1
ACDBDICTIONARYWDFLT
  2
AcDbDictionaryWithDefault
  3
ObjectDBX Classes
 90
        0
280
     0
281
     0
  0
CLASS
  1
TABLESTYLE
  2
AcDbTableStyle
  3
ObjectDBX Classes
 90
     2047
280
     0
281
     0
  0
CLASS
  1
DICTIONARYVAR
  2
AcDbDictionaryVar
  3
ObjectDBX Classes
 90
        0
280
     0
281
     0
  0
CLASS
  1
ACDBPLACEHOLDER
  2
AcDbPlaceHolder
  3
ObjectDBX Classes
 90
        0
280
     0
281
     0
  0
CLASS
  1
LAYOUT
  2
AcDbLayout
  3
ObjectDBX Classes
 90
        0
280
     0
281
     0
  0
ENDSEC
  0
SECTION
  2
TABLES
  0
TABLE
  2
VPORT
  5
8
330
0
100
AcDbSymbolTable
 70
     2
  0
VPORT
  5
29
330
8
100
AcDbSymbolTableRecord
100
AcDbViewportTableRecord
  2
*Active
 70
     0
 10
0.0
 20
0.0
 11
1.0
 21
1.0
 12
0.0
 22
0.00000000000001
 13
0.0
 23
0.0
 14
0.5
 24
0.5
 15
0.5
 25
0.5
 16
0.0
 26
0.0
 36
1.0
 17
0.0
 27
0.0
 37
0.0
 40
195.8
 41
1.60267857142857
 42
50.0
 43
0.0
 44
0.0
 50
0.0
 51
0.0
 71
     0
 72
   100
 73
     1
 74
     3
 75
     0
 76
     0
 77
     0
 78
     0
281
     0
 65
     1
110
0.0
120
0.0
130
0.0
111
1.0
121
0.0
131
0.0
112
0.0
122
1.0
132
0.0
 79
     0
146
0.0
  0
ENDTAB
  0
TABLE
  2
LTYPE
  5
5
330
0
100
AcDbSymbolTable
 70
     8
  0
LTYPE
  5
14
330
5
100
AcDbSymbolTableRecord
100
AcDbLinetypeTableRecord
  2
ByBlock
 70
     0
  3

 72
    65
 73
     0
 40
0.0
  0
LTYPE
  5
15
330
5
100
AcDbSymbolTableRecord
100
AcDbLinetypeTableRecord
  2
ByLayer
 70
     0
  3

 72
    65
 73
     0
 40
0.0
  0
LTYPE
  5
16
330
5
100
AcDbSymbolTableRecord
100
AcDbLinetypeTableRecord
  2
Continuous
 70
     0
  3
Solid line
 72
    65
 73
     0
 40
0.0
  0
LTYPE
  5
2E
330
5
100
AcDbSymbolTableRecord
100
AcDbLinetypeTableRecord
  2
DASHED
 70
     0
  3
Dashed
 72
    65
 73
     2
 40
15.0
 49
7.0
 74
     0
 49
-8.0
 74
     0
  0
LTYPE
  5
2F
330
5
100
AcDbSymbolTableRecord
100
AcDbLinetypeTableRecord
  2
DOTTED
 70
     0
  3
Dotted
 72
    65
 73
     2
 40
1.0
 49
0.0
 74
     0
 49
-1.0
 74
     0
  0
LTYPE
  5
30
330
5
100
AcDbSymbolTableRecord
100
AcDbLinetypeTableRecord
  2
DOT_CENTER
 70
     0
  3
Dot_Center
 72
    65
 73
     4
 40
14.0
 49
12.0
 74
     0
 49
-1.0
 74
     0
 49
0.0
 74
     0
 49
-1.0
 74
     0
  0
LTYPE
  5
31
330
5
100
AcDbSymbolTableRecord
100
AcDbLinetypeTableRecord
  2
LONG_DASHED
 70
     0
  3
Long_Dashed
 72
    65
 73
     2
 40
15.0
 49
10.0
 74
     0
 49
-5.0
 74
     0
  0
LTYPE
  5
32
330
5
100
AcDbSymbolTableRecord
100
AcDbLinetypeTableRecord
  2
DASH_CENTER
 70
     0
  3
Dash_Center
 72
    65
 73
     4
 40
14.0
 49
11.0
 74
     0
 49
-1.0
 74
     0
 49
1.0
 74
     0
 49
-1.0
 74
     0
  0
LTYPE
  5
33
330
5
100
AcDbSymbolTableRecord
100
AcDbLinetypeTableRecord
  2
PHANTOM
 70
     0
  3
Phantom
 72
    65
 73
     6
 40
13.0
 49
10.0
 74
     0
 49
-1.0
 74
     0
 49
0.0
 74
     0
 49
-1.0
 74
     0
 49
0.0
 74
     0
 49
-1.0
 74
     0
  0
LTYPE
  5
34
330
5
100
AcDbSymbolTableRecord
100
AcDbLinetypeTableRecord
  2
CENTER_DASH_DASH
 70
     0
  3
Center_Dash_Dash
 72
    65
 73
     6
 40
14.0
 49
9.0
 74
     0
 49
-1.0
 74
     0
 49
1.0
 74
     0
 49
-1.0
 74
     0
 49
1.0
 74
     0
 49
-1.0
 74
     0
  0
ENDTAB
  0
TABLE
  2
LAYER
  5
2
330
0
100
AcDbSymbolTable
 70
     2
  0
LAYER
  5
10
330
2
100
AcDbSymbolTableRecord
100
AcDbLayerTableRecord
  2
0
 70
     0
 62
     7
  6
Continuous
370
    -3
390
F
  0
LAYER
  5
35
330
2
100
AcDbSymbolTableRecord
100
AcDbLayerTableRecord
  2
1
 70
     0
 62
     7
  6
Continuous
370
    -3
390
F
  0
ENDTAB
  0
TABLE
  2
STYLE
  5
3
330
0
100
AcDbSymbolTable
 70
     3
  0
STYLE
  5
11
330
3
100
AcDbSymbolTableRecord
100
AcDbTextStyleTableRecord
  2
Standard
 70
     0
 40
0.0
 41
1.0
 50
0.0
 71
     0
 42
0.2
  3
txt
  4

  0
STYLE
  5
18A
330
3
100
AcDbSymbolTableRecord
100
AcDbTextStyleTableRecord
  2
CONVERTER_1
 70
     0
 40
0.0
 41
0.665
 50
0.0
 71
     0
 42
0.2
  3
simplex.shx
  4

  0
STYLE
  5
18C
330
3
100
AcDbSymbolTableRecord
100
AcDbTextStyleTableRecord
  2
CONVERTER_2
 70
     0
 40
0.0
 41
0.95
 50
0.0
 71
     0
 42
0.2
  3
simplex.shx
  4

  0
ENDTAB
  0
TABLE
  2
VIEW
  5
6
330
0
100
AcDbSymbolTable
 70
     0
  0
ENDTAB
  0
TABLE
  2
UCS
  5
7
330
0
100
AcDbSymbolTable
 70
     0
  0
ENDTAB
  0
TABLE
  2
APPID
  5
9
330
0
100
AcDbSymbolTable
 70
     1
  0
APPID
  5
12
330
9
100
AcDbSymbolTableRecord
100
AcDbRegAppTableRecord
  2
ACAD
 70
     0
  0
ENDTAB
  0
TABLE
  2
DIMSTYLE
  5
A
330
0
100
AcDbSymbolTable
 70
     1
100
AcDbDimStyleTable
  0
DIMSTYLE
105
27
330
A
100
AcDbSymbolTableRecord
100
AcDbDimStyleTableRecord
  2
Standard
 70
     0
340
11
  0
ENDTAB
  0
TABLE
  2
BLOCK_RECORD
  5
1
330
0
100
AcDbSymbolTable
 70
     1
  0
BLOCK_RECORD
  5
1F
330
1
100
AcDbSymbolTableRecord
100
AcDbBlockTableRecord
  2
*Model_Space
340
22
  0
BLOCK_RECORD
  5
1B
330
1
100
AcDbSymbolTableRecord
100
AcDbBlockTableRecord
  2
*Paper_Space
340
1E
  0
BLOCK_RECORD
  5
23
330
1
100
AcDbSymbolTableRecord
100
AcDbBlockTableRecord
  2
*Paper_Space0
340
26
  0
ENDTAB
  0
ENDSEC
  0
SECTION
  2
BLOCKS
  0
BLOCK
  5
20
330
1F
100
AcDbEntity
  8
0
100
AcDbBlockBegin
  2
*Model_Space
 70
     0
 71
     0
 10
0.0
 20
0.0
 30
0.0
  3
*Model_Space
  1

  0
ENDBLK
  5
21
330
1F
100
AcDbEntity
  8
0
100
AcDbBlockEnd
  0
BLOCK
  5
1C
330
1B
100
AcDbEntity
 67
     1
  8
0
100
AcDbBlockBegin
  2
*Paper_Space
 70
     0
 71
     0
 10
0.0
 20
0.0
 30
0.0
  3
*Paper_Space
  1

  0
ENDBLK
  5
1D
330
1B
100
AcDbEntity
 67
     1
  8
0
100
AcDbBlockEnd
  0
BLOCK
  5
24
330
23
100
AcDbEntity
  8
0
100
AcDbBlockBegin
  2
*Paper_Space0
 70
     0
 71
     0
 10
0.0
 20
0.0
 30
0.0
  3
*Paper_Space0
  1

  0
ENDBLK
  5
25
330
23
100
AcDbEntity
  8
0
100
AcDbBlockEnd
  0
ENDSEC
  0
SECTION
  2
ENTITIES
  0
LINE
  5
36
330
1F
100
AcDbEntity
  8
1
  6
Continuous
 62
     7
100
AcDbLine
 10
-47.15010729516472
 20
27.22212713918308
 30
0.0
 11
63.21985447626404
 21
-36.49999999999999
 31
0.0
  0
LINE
  5
37
330
1F
100
AcDbEntity
  8
1
  6
Continuous
 62
     7
100
AcDbLine
 10
11.19949745470541
 20
52.68949293643439
 30
0.0
 11
-15.17719741235169
 21
-71.4030999236483
 31
0.0
  0
LINE
  5
38
102
{ACAD_REACTORS
330
19E
330
19E
102
}
330
1F
100
AcDbEntity
  8
1
  6
Continuous
 62
     7
100
AcDbLine
 10
48.74111125034406
 20
47.41628490383427
 30
0.0
 11
52.33783289464549
 21
50.88959862184179
 31
0.0
  0
LINE
  5
39
102
{ACAD_REACTORS
330
19E
330
19E
102
}
330
1F
100
AcDbEntity
  8
1
  6
Continuous
 62
     7
100
AcDbLine
 10
49.08844043557357
 20
47.05661500366494
 30
0.0
 11
48.74111125034406
 21
47.41628490383427
 31
0.0
  0
LINE
  5
3A
102
{ACAD_REACTORS
330
19E
330
19E
102
}
330
1F
100
AcDbEntity
  8
1
  6
Continuous
 62
     7
100
AcDbLine
 10
52.685162079875
 20
50.52992872167247
 30
0.0
 11
49.08844043557357
 21
47.05661500366494
 31
0.0
  0
LINE
  5
3B
102
{ACAD_REACTORS
330
19F
330
19F
102
}
330
1F
100
AcDbEntity
  8
1
  6
Continuous
 62
     7
100
AcDbLine
 10
-30.03373503522279
 20
61.00798931151584
 30
0.0
 11
-39.23957665304567
 21
79.8827617455083
 31
0.0
  0
LINE
  5
3C
102
{ACAD_REACTORS
330
19F
330
19F
102
}
330
1F
100
AcDbEntity
  8
1
  6
Continuous
 62
     7
100
AcDbLine
 10
-29.58433801207322
 20
61.22717488491038
 30
0.0
 11
-30.03373503522279
 21
61.00798931151584
 31
0.0
  0
LINE
  5
3D
102
{ACAD_REACTORS
330
19F
330
19F
102
}
330
1F
100
AcDbEntity
  8
1
  6
Continuous
 62
     7
100
AcDbLine
 10
-31.77620754459628
 20
65.72117340768303
 30
0.0
 11
-29.58433801207322
 21
61.22717488491038
 31
0.0
  0
LINE
  5
3E
102
{ACAD_REACTORS
330
19F
330
19F
102
}
330
1F
100
AcDbEntity
  8
1
  6
Continuous
 62
     7
100
AcDbLine
 10
-38.790179629896
 20
80.1019473189029
 30
0.0
 11
-31.77620754459628
 21
65.72117340768303
 31
0.0
  0
LINE
  5
3F
102
{ACAD_REACTORS
330
19E
330
19E
102
}
330
1F
100
AcDbEntity
  8
1
  6
Continuous
 62
     7
100
AcDbLine
 10
52.33783289464549
 20
50.88959862184179
 30
0.0
 11
63.84732505984943
 21
62.00418600950918
 31
0.0
  0
LINE
  5
40
102
{ACAD_REACTORS
330
19E
330
19E
102
}
330
1F
100
AcDbEntity
  8
1
  6
Continuous
 62
     7
100
AcDbLine
 10
64.19465424507894
 20
61.64451610933985
 30
0.0
 11
52.685162079875
 21
50.52992872167247
 31
0.0
  0
LINE
  5
41
102
{ACAD_REACTORS
330
1A0
330
1A0
102
}
330
1F
100
AcDbEntity
  8
1
  6
Continuous
 62
     7
100
AcDbLine
 10
-15.17719741235169
 20
-71.4030999236483
 30
0.0
 11
-15.66627121271859
 21
-71.29914407823942
 31
0.0
  0
LINE
  5
42
330
1F
100
AcDbEntity
  8
1
  6
Continuous
 62
     7
100
AcDbLine
 10
14.13799497560764
 20
66.5140368498988
 30
0.0
 11
13.77181117223385
 21
64.79127750294313
 31
0.0
  0
LINE
  5
43
330
1F
100
AcDbEntity
  8
1
  6
Continuous
 62
     7
100
AcDbLine
 10
-58.88972745734183
 20
33.99999999999999
 30
0.0
 11
-57.39597482762458
 21
33.13758151713003
 31
0.0
  0
LINE
  5
44
102
{ACAD_REACTORS
330
1A1
330
1A1
102
}
330
1F
100
AcDbEntity
  8
1
  6
Continuous
 62
     7
100
AcDbLine
 10
77.32504459940327
 20
-44.06628504537565
 30
0.0
 11
76.82504459940276
 21
-44.93231044915979
 31
0.0
  0
LINE
  5
45
102
{ACAD_REACTORS
330
1A1
330
1A1
102
}
330
1F
100
AcDbEntity
  8
1
  6
Continuous
 62
     7
100
AcDbLine
 10
63.46837153865955
 20
-36.06613112368264
 30
0.0
 11
77.32504459940327
 21
-44.06628504537565
 31
0.0
  0
LINE
  5
46
102
{ACAD_REACTORS
330
1A1
330
1A1
102
}
330
1F
100
AcDbEntity
  8
1
  6
Continuous
 62
     7
100
AcDbLine
 10
62.96837153865955
 20
-36.93215652746707
 30
0.0
 11
63.46837153865955
 21
-36.06613112368264
 31
0.0
  0
LINE
  5
47
102
{ACAD_REACTORS
330
1A1
330
1A1
102
}
330
1F
100
AcDbEntity
  8
1
  6
Continuous
 62
     7
100
AcDbLine
 10
76.82504459940276
 20
-44.93231044915979
 30
0.0
 11
62.96837153865955
 21
-36.93215652746707
 31
0.0
  0
LINE
  5
48
102
{ACAD_REACTORS
330
1A0
330
1A0
102
}
330
1F
100
AcDbEntity
  8
1
  6
Continuous
 62
     7
100
AcDbLine
 10
-18.99292227004164
 20
-86.94980680624975
 30
0.0
 11
-18.01477466930783
 21
-87.15771849706751
 31
0.0
  0
LINE
  5
49
102
{ACAD_REACTORS
330
1A0
330
1A0
102
}
330
1F
100
AcDbEntity
  8
1
  6
Continuous
 62
     7
100
AcDbLine
 10
-15.66627121271859
 20
-71.29914407823942
 30
0.0
 11
-18.99292227004164
 21
-86.94980680624975
 31
0.0
  0
LINE
  5
4A
102
{ACAD_REACTORS
330
1A0
330
1A0
102
}
330
1F
100
AcDbEntity
  8
1
  6
Continuous
 62
     7
100
AcDbLine
 10
-14.68812361198479
 20
-71.50705576905717
 30
0.0
 11
-15.17719741235169
 21
-71.4030999236483
 31
0.0
  0
LINE
  5
4B
102
{ACAD_REACTORS
330
1A0
330
1A0
102
}
330
1F
100
AcDbEntity
  8
1
  6
Continuous
 62
     7
100
AcDbLine
 10
-18.01477466930783
 20
-87.15771849706751
 30
0.0
 11
-14.68812361198479
 21
-71.50705576905717
 31
0.0
  0
LINE
  5
4C
330
1F
100
AcDbEntity
  8
1
  6
Continuous
 62
     7
100
AcDbLine
 10
64.02124223013992
 20
61.82459497085074
 30
0.0
 11
48.91510642302828
 21
47.23676919121186
 31
0.0
  0
LINE
  5
4D
330
1F
100
AcDbEntity
  8
1
  6
Continuous
 62
     7
100
AcDbLine
 10
-39.0150320642279
 20
79.99267012062586
 30
0.0
 11
-29.80923798165724
 21
61.11799514834337
 31
0.0
  0
LINE
  5
4E
330
1F
100
AcDbEntity
  8
1
  6
DOT_CENTER
 62
     7
100
AcDbLine
 10
0.17449748351252
 20
4.99695413509551
 30
0.0
 11
-0.17449748351249
 21
-4.99695413509545
 31
0.0
  0
LINE
  5
4F
330
1F
100
AcDbEntity
  8
1
  6
DOT_CENTER
 62
     7
100
AcDbLine
 10
-4.99695413509546
 20
0.17449748351253
 30
0.0
 11
4.9969541350955
 21
-0.17449748351248
 31
0.0
  0
LINE
  5
50
330
1F
100
AcDbEntity
  8
1
  6
Continuous
 62
     7
100
AcDbLine
 10
71.25654569612283
 20
31.72545815991244
 30
0.0
 11
66.68881840790984
 21
29.69177494453344
 31
0.0
  0
LINE
  5
51
330
1F
100
AcDbEntity
  8
1
  6
Continuous
 62
     7
100
AcDbLine
 10
70.69200738885866
 20
32.96422441577458
 30
0.0
 11
66.16046845367541
 21
30.85113310707109
 31
0.0
  0
LINE
  5
52
330
1F
100
AcDbEntity
  8
1
  6
Continuous
 62
     7
100
AcDbLine
 10
70.10593561133497
 20
34.19294944954803
 30
0.0
 11
65.61196537983916
 21
32.00109371560266
 31
0.0
  0
LINE
  5
53
330
1F
100
AcDbEntity
  8
1
  6
Continuous
 62
     7
100
AcDbLine
 10
69.49850888669266
 20
35.41125897968467
 30
0.0
 11
65.04347626575083
 21
33.14130648098693
 31
0.0
  0
LINE
  5
54
330
1F
100
AcDbEntity
  8
1
  6
Continuous
 62
     7
100
AcDbLine
 10
68.86991224299626
 20
36.61878189729951
 30
0.0
 11
60.040436314407
 21
31.9240662694406
 31
0.0
  0
LINE
  5
55
330
1F
100
AcDbEntity
  8
1
  6
Continuous
 62
     7
100
AcDbLine
 10
66.1477515002012
 20
41.33370261018998
 30
0.0
 11
61.90751101941906
 21
38.68410628902395
 31
0.0
  0
LINE
  5
56
330
1F
100
AcDbEntity
  8
1
  6
Continuous
 62
     7
100
AcDbLine
 10
66.85904945476473
 20
40.17296984298422
 30
0.0
 11
62.57321295125416
 21
37.59777946843395
 31
0.0
  0
LINE
  5
57
330
1F
100
AcDbEntity
  8
1
  6
Continuous
 62
     7
100
AcDbLine
 10
67.5499814951862
 20
39.00000000000003
 30
0.0
 11
63.219854476264
 21
36.50000000000002
 31
0.0
  0
LINE
  5
58
330
1F
100
AcDbEntity
  8
1
  6
Continuous
 62
     7
100
AcDbLine
 10
68.22033715687287
 20
37.81515037921432
 30
0.0
 11
63.84723862117588
 21
35.39110227798263
 31
0.0
  0
LINE
  5
59
330
1F
100
AcDbEntity
  8
1
  6
Continuous
 62
     7
100
AcDbLine
 10
65.41630429974305
 20
42.48184473117211
 30
0.0
 11
59.12627504015236
 21
38.39705196855943
 31
0.0
  0
LINE
  5
5A
330
1F
100
AcDbEntity
  8
1
  6
Continuous
 62
     7
100
AcDbLine
 10
64.66493065929323
 20
43.61704647071827
 30
0.0
 11
60.51974279651801
 21
40.82108195336451
 31
0.0
  0
LINE
  5
5B
330
1F
100
AcDbEntity
  8
1
  6
Continuous
 62
     7
100
AcDbLine
 10
63.89385945454134
 20
44.7389620353816
 30
0.0
 11
59.79809923309638
 21
41.87107985362638
 31
0.0
  0
LINE
  5
5C
330
1F
100
AcDbEntity
  8
1
  6
Continuous
 62
     7
100
AcDbLine
 10
63.10332556124587
 20
45.84724967881289
 30
0.0
 11
59.05824058937115
 21
42.90832341735055
 31
0.0
  0
LINE
  5
5D
330
1F
100
AcDbEntity
  8
1
  6
Continuous
 62
     7
100
AcDbLine
 10
62.29356978368881
 20
46.94157180585977
 30
0.0
 11
58.30039223345234
 21
43.93249669009951
 31
0.0
  0
LINE
  5
5E
330
1F
100
AcDbEntity
  8
1
  6
Continuous
 62
     7
100
AcDbLine
 10
61.46483878132427
 20
48.02159507540135
 30
0.0
 11
53.58473124525707
 21
41.86498032214478
 31
0.0
  0
LINE
  5
5F
330
1F
100
AcDbEntity
  8
1
  6
Continuous
 62
     7
100
AcDbLine
 10
57.96529638723672
 20
52.19218729599093
 30
0.0
 11
54.24957225984974
 21
48.84653426419663
 31
0.0
  0
LINE
  5
60
330
1F
100
AcDbEntity
  8
1
  6
Continuous
 62
     7
100
AcDbLine
 10
58.86734725737618
 20
51.17260426125956
 30
0.0
 11
55.09379935626232
 21
47.89230911630702
 31
0.0
  0
LINE
  5
61
330
1F
100
AcDbEntity
  8
1
  6
Continuous
 62
     7
100
AcDbLine
 10
59.75146656328027
 20
50.13743355555009
 30
0.0
 11
55.92124434768537
 21
46.92349550711738
 31
0.0
  0
LINE
  5
62
330
1F
100
AcDbEntity
  8
1
  6
Continuous
 62
     7
100
AcDbLine
 10
60.61738499364371
 20
49.08699050188734
 30
0.0
 11
56.73165518635886
 21
45.94038854663815
 31
0.0
  0
LINE
  5
63
330
1F
100
AcDbEntity
  8
1
  6
Continuous
 62
     7
100
AcDbLine
 10
57.04558872629528
 20
53.1958720848749
 30
0.0
 11
51.5604359641515
 21
48.08088438440616
 31
0.0
  0
LINE
  5
64
330
1F
100
AcDbEntity
  8
1
  6
Continuous
 62
     7
100
AcDbLine
 10
55.15432893255068
 20
55.15432893255071
 30
0.0
 11
51.61879502661796
 21
51.61879502661799
 31
0.0
  0
LINE
  5
65
330
1F
100
AcDbEntity
  8
1
  6
Continuous
 62
     7
100
AcDbLine
 10
54.18335289580178
 20
56.1085044264148
 30
0.0
 11
50.71006104350677
 21
52.51180542472152
 31
0.0
  0
LINE
  5
66
330
1F
100
AcDbEntity
  8
1
  6
Continuous
 62
     7
100
AcDbLine
 10
53.19587208487486
 20
57.0455887262953
 30
0.0
 11
49.78588028456237
 21
53.38882021819946
 31
0.0
  0
LINE
  5
67
330
1F
100
AcDbEntity
  8
1
  6
Continuous
 62
     7
100
AcDbLine
 10
52.19218729599092
 20
57.96529638723676
 30
0.0
 11
45.50088123240234
 21
50.53384813246281
 31
0.0
  0
LINE
  5
68
330
1F
100
AcDbEntity
  8
1
  6
Continuous
 62
     7
100
AcDbLine
 10
48.02159507540132
 20
61.4648387813243
 30
0.0
 11
44.94328769877303
 21
57.52478501329069
 31
0.0
  0
LINE
  5
69
330
1F
100
AcDbEntity
  8
1
  6
Continuous
 62
     7
100
AcDbLine
 10
49.0869905018873
 20
60.61738499364373
 30
0.0
 11
45.9403885466381
 21
56.73165518635886
 31
0.0
  0
LINE
  5
6A
330
1F
100
AcDbEntity
  8
1
  6
Continuous
 62
     7
100
AcDbLine
 10
50.13743355555003
 20
59.75146656328026
 30
0.0
 11
46.92349550711736
 21
55.92124434768542
 31
0.0
  0
LINE
  5
6B
330
1F
100
AcDbEntity
  8
1
  6
Continuous
 62
     7
100
AcDbLine
 10
51.17260426125956
 20
58.86734725737625
 30
0.0
 11
47.89230911630701
 21
55.09379935626237
 31
0.0
  0
LINE
  5
6C
330
1F
100
AcDbEntity
  8
1
  6
Continuous
 62
     7
100
AcDbLine
 10
46.94157180585975
 20
62.29356978368883
 30
0.0
 11
42.42795913221939
 21
56.30380345833417
 31
0.0
  0
LINE
  5
6D
330
1F
100
AcDbEntity
  8
1
  6
Continuous
 62
     7
100
AcDbLine
 10
45.84724967881287
 20
63.10332556124588
 30
0.0
 11
42.90832341735052
 21
59.05824058937117
 31
0.0
  0
LINE
  5
6E
330
1F
100
AcDbEntity
  8
1
  6
Continuous
 62
     7
100
AcDbLine
 10
44.73896203538157
 20
63.89385945454134
 30
0.0
 11
41.87107985362635
 21
59.7980992330964
 31
0.0
  0
LINE
  5
6F
330
1F
100
AcDbEntity
  8
1
  6
Continuous
 62
     7
100
AcDbLine
 10
43.61704647071823
 20
64.66493065929323
 30
0.0
 11
40.82108195336449
 21
60.51974279651802
 31
0.0
  0
LINE
  5
70
330
1F
100
AcDbEntity
  8
1
  6
Continuous
 62
     7
100
AcDbLine
 10
42.48184473117208
 20
65.41630429974305
 30
0.0
 11
39.75864955609696
 21
61.22295146001596
 31
0.0
  0
LINE
  5
71
330
1F
100
AcDbEntity
  8
1
  6
Continuous
 62
     7
100
AcDbLine
 10
41.33370261018996
 20
66.14775150020121
 30
0.0
 11
36.03450996785792
 21
57.66727053863697
 31
0.0
  0
LINE
  5
72
330
1F
100
AcDbEntity
  8
1
  6
Continuous
 62
     7
100
AcDbLine
 10
36.61878189729946
 20
68.86991224299629
 30
0.0
 11
34.27142408337001
 21
64.45517427870165
 31
0.0
  0
LINE
  5
73
330
1F
100
AcDbEntity
  8
1
  6
Continuous
 62
     7
100
AcDbLine
 10
37.81515037921427
 20
68.22033715687286
 30
0.0
 11
35.39110227798258
 21
63.84723862117588
 31
0.0
  0
LINE
  5
74
330
1F
100
AcDbEntity
  8
1
  6
Continuous
 62
     7
100
AcDbLine
 10
39.0
 20
67.54998149518624
 30
0.0
 11
36.5
 21
63.21985447626403
 31
0.0
  0
LINE
  5
75
330
1F
100
AcDbEntity
  8
1
  6
Continuous
 62
     7
100
AcDbLine
 10
40.1729698429842
 20
66.85904945476473
 30
0.0
 11
37.59777946843393
 21
62.57321295125417
 31
0.0
  0
LINE
  5
76
330
1F
100
AcDbEntity
  8
1
  6
Continuous
 62
     7
100
AcDbLine
 10
35.41125897968464
 20
69.49850888669269
 30
0.0
 11
32.00633023163805
 21
62.81595995527995
 31
0.0
  0
LINE
  5
77
330
1F
100
AcDbEntity
  8
1
  6
Continuous
 62
     7
100
AcDbLine
 10
34.19294944954802
 20
70.10593561133504
 30
0.0
 11
32.00109371560264
 21
65.61196537983921
 31
0.0
  0
LINE
  5
78
330
1F
100
AcDbEntity
  8
1
  6
Continuous
 62
     7
100
AcDbLine
 10
32.96422441577455
 20
70.6920073888587
 30
0.0
 11
30.85113310707105
 21
66.16046845367546
 31
0.0
  0
LINE
  5
79
330
1F
100
AcDbEntity
  8
1
  6
Continuous
 62
     7
100
AcDbLine
 10
31.72545815991241
 20
71.25654569612288
 30
0.0
 11
29.69177494453339
 21
66.68881840790984
 31
0.0
  0
LINE
  5
7A
330
1F
100
AcDbEntity
  8
1
  6
Continuous
 62
     7
100
AcDbLine
 10
30.47702802216333
 20
71.79937856929031
 30
0.0
 11
28.52337237971696
 21
67.19685430202813
 31
0.0
  0
LINE
  5
7B
330
1F
100
AcDbEntity
  8
1
  6
Continuous
 62
     7
100
AcDbLine
 10
29.21931428644113
 20
72.32034065620942
 30
0.0
 11
25.47324835228201
 21
63.04850211054155
 31
0.0
  0
LINE
  5
7C
330
1F
100
AcDbEntity
  8
1
  6
Continuous
 62
     7
100
AcDbLine
 10
24.10332556124588
 20
74.18240827102197
 30
0.0
 11
22.55824058937115
 21
69.4271256895462
 31
0.0
  0
LINE
  5
7D
330
1F
100
AcDbEntity
  8
1
  6
Continuous
 62
     7
100
AcDbLine
 10
25.3943160476582
 20
73.7504488967467
 30
0.0
 11
23.76647527537242
 21
69.02285601875012
 31
0.0
  0
LINE
  5
7E
330
1F
100
AcDbEntity
  8
1
  6
Continuous
 62
     7
100
AcDbLine
 10
26.67757117940216
 20
73.29602442130088
 30
0.0
 11
24.96747046277382
 21
68.59756131737133
 31
0.0
  0
LINE
  5
7F
330
1F
100
AcDbEntity
  8
1
  6
Continuous
 62
     7
100
AcDbLine
 10
27.95270006453342
 20
72.81927326678176
 30
0.0
 11
26.16086031680692
 21
68.15137113429576
 31
0.0
  0
LINE
  5
80
330
1F
100
AcDbEntity
  8
1
  6
Continuous
 62
     7
100
AcDbLine
 10
22.80499296837347
 20
74.59177096511678
 30
0.0
 11
20.61220518295294
 21
67.41948529539401
 31
0.0
  0
LINE
  5
81
330
1F
100
AcDbEntity
  8
1
  6
Continuous
 62
     7
100
AcDbLine
 10
21.49971375372594
 20
74.97841228318887
 30
0.0
 11
20.12152697464094
 21
70.17210380349729
 31
0.0
  0
LINE
  5
82
330
1F
100
AcDbEntity
  8
1
  6
Continuous
 62
     7
100
AcDbLine
 10
20.1878855179966
 20
75.3422144505473
 30
0.0
 11
18.89379029248402
 21
70.512585319102
 31
0.0
  0
LINE
  5
83
330
1F
100
AcDbEntity
  8
1
  6
Continuous
 62
     7
100
AcDbLine
 10
18.86990785677408
 20
75.68306664952773
 30
0.0
 11
17.66029837877575
 21
70.83158801814777
 31
0.0
  0
LINE
  5
84
330
1F
100
AcDbEntity
  8
1
  6
Continuous
 62
     7
100
AcDbLine
 10
17.54618223882147
 20
76.00086505324836
 30
0.0
 11
16.42142696710215
 21
71.12901472932218
 31
0.0
  0
LINE
  5
85
330
1F
100
AcDbEntity
  8
1
  6
Continuous
 62
     7
100
AcDbLine
 10
16.21711188378523
 20
76.29551285723684
 30
0.0
 11
14.13799497560764
 21
66.5140368498988
 31
0.0
  0
LINE
  5
86
330
1F
100
AcDbEntity
  8
1
  6
Continuous
 62
     7
100
AcDbLine
 10
10.85550187488509
 20
77.24090936184247
 30
0.0
 11
10.15963637008476
 21
72.28956901813461
 31
0.0
  0
LINE
  5
87
330
1F
100
AcDbEntity
  8
1
  6
Continuous
 62
     7
100
AcDbLine
 10
12.201888273138
 20
77.03969056642073
 30
0.0
 11
11.41971594793684
 21
72.10124886344504
 31
0.0
  0
LINE
  5
88
330
1F
100
AcDbEntity
  8
1
  6
Continuous
 62
     7
100
AcDbLine
 10
13.54455785802057
 20
76.81500473495225
 30
0.0
 11
12.67631696968591
 21
71.8909659698912
 31
0.0
  0
LINE
  5
89
330
1F
100
AcDbEntity
  8
1
  6
Continuous
 62
     7
100
AcDbLine
 10
14.8831016393705
 20
76.56692030891782
 30
0.0
 11
13.92905666248777
 21
71.65878439167949
 31
0.0
  0
LINE
  5
8A
330
1F
100
AcDbEntity
  8
1
  6
Continuous
 62
     7
100
AcDbLine
 10
9.5058087856015
 20
77.41859982802313
 30
0.0
 11
8.5917887100629
 21
69.97450369071321
 31
0.0
  0
LINE
  5
8B
330
1F
100
AcDbEntity
  8
1
  6
Continuous
 62
     7
100
AcDbLine
 10
8.15322013487697
 20
77.57270783872534
 30
0.0
 11
7.63057781853871
 21
72.60009836188395
 31
0.0
  0
LINE
  5
8C
330
1F
100
AcDbEntity
  8
1
  6
Continuous
 62
     7
100
AcDbLine
 10
6.79814793431734
 20
77.70318645115616
 30
0.0
 11
6.36236922057905
 21
72.72221296069743
 31
0.0
  0
LINE
  5
8D
330
1F
100
AcDbEntity
  8
1
  6
Continuous
 62
     7
100
AcDbLine
 10
5.44100495204178
 20
77.8099959202663
 30
0.0
 11
5.09222258332115
 21
72.82217566896718
 31
0.0
  0
LINE
  5
8E
330
1F
100
AcDbEntity
  8
1
  6
Continuous
 62
     7
100
AcDbLine
 10
4.08220458694962
 20
77.89310371085676
 30
0.0
 11
3.82052480573489
 21
72.89995603708387
 31
0.0
  0
LINE
  5
8F
330
1F
100
AcDbEntity
  8
1
  6
Continuous
 62
     7
100
AcDbLine
 10
2.72216074279508
 20
77.95248450748947
 30
0.0
 11
2.37316577577007
 21
67.95857623729852
 31
0.0
  0
LINE
  5
90
330
1F
100
AcDbEntity
  8
1
  6
Continuous
 62
     7
100
AcDbLine
 10
-2.72216074279509
 20
77.95248450748947
 30
0.0
 11
-2.54766325928258
 21
72.95553037239398
 31
0.0
  0
LINE
  5
91
330
1F
100
AcDbEntity
  8
1
  6
Continuous
 62
     7
100
AcDbLine
 10
-1.36128770210813
 20
77.9881202221985
 30
0.0
 11
-1.27402566992171
 21
72.98888174641655
 31
0.0
  0
LINE
  5
92
330
1F
100
AcDbEntity
  8
1
  6
Continuous
 62
     7
100
AcDbLine
 10
0.0
 20
78.00000000000004
 30
0.0
 11
0.00000000000001
 21
73.00000000000003
 31
0.0
  0
LINE
  5
93
330
1F
100
AcDbEntity
  8
1
  6
Continuous
 62
     7
100
AcDbLine
 10
1.3612877021081
 20
77.98812022219849
 30
0.0
 11
1.27402566992169
 21
72.98888174641654
 31
0.0
  0
LINE
  5
94
330
1F
100
AcDbEntity
  8
1
  6
Continuous
 62
     7
100
AcDbLine
 10
-4.08220458694961
 20
77.89310371085678
 30
0.0
 11
-3.68968491512753
 21
70.40338220019748
 31
0.0
  0
LINE
  5
95
330
1F
100
AcDbEntity
  8
1
  6
Continuous
 62
     7
100
AcDbLine
 10
-5.44100495204177
 20
77.8099959202663
 30
0.0
 11
-5.09222258332114
 21
72.82217566896719
 31
0.0
  0
LINE
  5
96
330
1F
100
AcDbEntity
  8
1
  6
Continuous
 62
     7
100
AcDbLine
 10
-6.79814793431733
 20
77.70318645115616
 30
0.0
 11
-6.36236922057904
 21
72.72221296069745
 31
0.0
  0
LINE
  5
97
330
1F
100
AcDbEntity
  8
1
  6
Continuous
 62
     7
100
AcDbLine
 10
-8.15322013487696
 20
77.57270783872534
 30
0.0
 11
-7.63057781853869
 21
72.60009836188397
 31
0.0
  0
LINE
  5
98
330
1F
100
AcDbEntity
  8
1
  6
Continuous
 62
     7
100
AcDbLine
 10
-9.5058087856015
 20
77.41859982802313
 30
0.0
 11
-8.89646206857576
 21
72.45586906981653
 31
0.0
  0
LINE
  5
99
330
1F
100
AcDbEntity
  8
1
  6
Continuous
 62
     7
100
AcDbLine
 10
-10.85550187488509
 20
77.2409093618425
 30
0.0
 11
-9.46377086528444
 21
67.33822867442679
 31
0.0
  0
LINE
  5
9A
330
1F
100
AcDbEntity
  8
1
  6
Continuous
 62
     7
100
AcDbLine
 10
-18.86990785677409
 20
75.68306664952772
 30
0.0
 11
-17.66029837877575
 21
70.83158801814774
 31
0.0
  0
LINE
  5
9B
330
1F
100
AcDbEntity
  8
1
  6
Continuous
 62
     7
100
AcDbLine
 10
-17.54618223882149
 20
76.00086505324836
 30
0.0
 11
-16.42142696710215
 21
71.12901472932217
 31
0.0
  0
LINE
  5
9C
330
1F
100
AcDbEntity
  8
1
  6
Continuous
 62
     7
100
AcDbLine
 10
-16.21711188378524
 20
76.29551285723684
 30
0.0
 11
-15.17755342969644
 21
71.4047748535678
 31
0.0
  0
LINE
  5
9D
330
1F
100
AcDbEntity
  8
1
  6
Continuous
 62
     7
100
AcDbLine
 10
-12.201888273138
 20
77.03969056642079
 30
0.0
 11
-11.41971594793685
 21
72.10124886344509
 31
0.0
  0
LINE
  5
9E
330
1F
100
AcDbEntity
  8
1
  6
Continuous
 62
     7
100
AcDbLine
 10
-20.18788551799663
 20
75.34221445054732
 30
0.0
 11
-18.24674267972772
 21
68.09777075337931
 31
0.0
  0
LINE
  5
9F
330
1F
100
AcDbEntity
  8
1
  6
Continuous
 62
     7
100
AcDbLine
 10
-21.49971375372594
 20
74.97841228318886
 30
0.0
 11
-20.12152697464094
 21
70.17210380349727
 31
0.0
  0
LINE
  5
A0
330
1F
100
AcDbEntity
  8
1
  6
Continuous
 62
     7
100
AcDbLine
 10
-22.80499296837347
 20
74.59177096511675
 30
0.0
 11
-21.34313444475978
 21
69.81024718530158
 31
0.0
  0
LINE
  5
A1
330
1F
100
AcDbEntity
  8
1
  6
Continuous
 62
     7
100
AcDbLine
 10
-24.10332556124591
 20
74.18240827102197
 30
0.0
 11
-22.55824058937117
 21
69.4271256895462
 31
0.0
  0
LINE
  5
A2
330
1F
100
AcDbEntity
  8
1
  6
Continuous
 62
     7
100
AcDbLine
 10
-25.39431604765822
 20
73.75044889674669
 30
0.0
 11
-23.76647527537244
 21
69.02285601875012
 31
0.0
  0
LINE
  5
A3
330
1F
100
AcDbEntity
  8
1
  6
Continuous
 62
     7
100
AcDbLine
 10
-26.67757117940216
 20
73.29602442130084
 30
0.0
 11
-23.25736974614547
 21
63.89909821344176
 31
0.0
  0
LINE
  5
A4
330
1F
100
AcDbEntity
  8
1
  6
Continuous
 62
     7
100
AcDbLine
 10
-31.72545815991242
 20
71.25654569612286
 30
0.0
 11
-29.69177494453342
 21
66.68881840790986
 31
0.0
  0
LINE
  5
A5
330
1F
100
AcDbEntity
  8
1
  6
Continuous
 62
     7
100
AcDbLine
 10
-30.47702802216337
 20
71.79937856929037
 30
0.0
 11
-28.52337237971699
 21
67.19685430202814
 31
0.0
  0
LINE
  5
A6
330
1F
100
AcDbEntity
  8
1
  6
Continuous
 62
     7
100
AcDbLine
 10
-29.21931428644115
 20
72.32034065620941
 30
0.0
 11
-27.34628131936159
 21
67.68442138337548
 31
0.0
  0
LINE
  5
A7
330
1F
100
AcDbEntity
  8
1
  6
Continuous
 62
     7
100
AcDbLine
 10
-27.95270006453343
 20
72.81927326678175
 30
0.0
 11
-26.16086031680693
 21
68.15137113429573
 31
0.0
  0
LINE
  5
A8
330
1F
100
AcDbEntity
  8
1
  6
Continuous
 62
     7
100
AcDbLine
 10
-32.96422441577456
 20
70.69200738885868
 30
0.0
 11
-29.79458745271932
 21
63.89469898608382
 31
0.0
  0
LINE
  5
A9
330
1F
100
AcDbEntity
  8
1
  6
Continuous
 62
     7
100
AcDbLine
 10
-35.41125897968465
 20
69.49850888669268
 30
0.0
 11
-33.14130648098692
 21
65.04347626575084
 31
0.0
  0
LINE
  5
AA
330
1F
100
AcDbEntity
  8
1
  6
Continuous
 62
     7
100
AcDbLine
 10
-36.61878189729948
 20
68.86991224299629
 30
0.0
 11
-34.27142408337003
 21
64.45517427870166
 31
0.0
  0
LINE
  5
AB
330
1F
100
AcDbEntity
  8
1
  6
Continuous
 62
     7
100
AcDbLine
 10
-37.81515037921429
 20
68.22033715687286
 30
0.0
 11
-35.3911022779826
 21
63.84723862117589
 31
0.0
  0
LINE
  5
AC
330
1F
100
AcDbEntity
  8
1
  6
Continuous
 62
     7
100
AcDbLine
 10
-39.0
 20
67.5499814951862
 30
0.0
 11
-34.0
 21
58.88972745734182
 31
0.0
  0
LINE
  5
AD
330
1F
100
AcDbEntity
  8
1
  6
Continuous
 62
     7
100
AcDbLine
 10
-43.61704647071825
 20
64.66493065929325
 30
0.0
 11
-40.82108195336452
 21
60.51974279651805
 31
0.0
  0
LINE
  5
AE
330
1F
100
AcDbEntity
  8
1
  6
Continuous
 62
     7
100
AcDbLine
 10
-42.48184473117213
 20
65.41630429974309
 30
0.0
 11
-39.75864955609698
 21
61.22295146001595
 31
0.0
  0
LINE
  5
AF
330
1F
100
AcDbEntity
  8
1
  6
Continuous
 62
     7
100
AcDbLine
 10
-41.33370261018999
 20
66.14775150020122
 30
0.0
 11
-38.68410628902397
 21
61.90751101941909
 31
0.0
  0
LINE
  5
B0
330
1F
100
AcDbEntity
  8
1
  6
Continuous
 62
     7
100
AcDbLine
 10
-40.17296984298423
 20
66.85904945476476
 30
0.0
 11
-37.59777946843396
 21
62.57321295125419
 31
0.0
  0
LINE
  5
B1
330
1F
100
AcDbEntity
  8
1
  6
Continuous
 62
     7
100
AcDbLine
 10
-44.7389620353816
 20
63.89385945454135
 30
0.0
 11
-40.43713876274875
 21
57.75021912237392
 31
0.0
  0
LINE
  5
B2
330
1F
100
AcDbEntity
  8
1
  6
Continuous
 62
     7
100
AcDbLine
 10
-45.8472496788129
 20
63.1033255612459
 30
0.0
 11
-42.90832341735054
 21
59.05824058937115
 31
0.0
  0
LINE
  5
B3
330
1F
100
AcDbEntity
  8
1
  6
Continuous
 62
     7
100
AcDbLine
 10
-46.94157180585977
 20
62.29356978368883
 30
0.0
 11
-43.93249669009952
 21
58.30039223345237
 31
0.0
  0
LINE
  5
B4
330
1F
100
AcDbEntity
  8
1
  6
Continuous
 62
     7
100
AcDbLine
 10
-48.02159507540134
 20
61.4648387813243
 30
0.0
 11
-44.94328769877305
 21
57.5247850132907
 31
0.0
  0
LINE
  5
B5
330
1F
100
AcDbEntity
  8
1
  6
Continuous
 62
     7
100
AcDbLine
 10
-49.08699050188731
 20
60.61738499364372
 30
0.0
 11
-45.94038854663813
 21
56.73165518635886
 31
0.0
  0
LINE
  5
B6
330
1F
100
AcDbEntity
  8
1
  6
Continuous
 62
     7
100
AcDbLine
 10
-50.13743355555006
 20
59.75146656328027
 30
0.0
 11
-43.70955745868467
 21
52.0910221320905
 31
0.0
  0
LINE
  5
B7
330
1F
100
AcDbEntity
  8
1
  6
Continuous
 62
     7
100
AcDbLine
 10
-54.18335289580179
 20
56.10850442641478
 30
0.0
 11
-50.71006104350681
 21
52.51180542472153
 31
0.0
  0
LINE
  5
B8
330
1F
100
AcDbEntity
  8
1
  6
Continuous
 62
     7
100
AcDbLine
 10
-53.19587208487491
 20
57.04558872629531
 30
0.0
 11
-49.7858802845624
 21
53.38882021819943
 31
0.0
  0
LINE
  5
B9
330
1F
100
AcDbEntity
  8
1
  6
Continuous
 62
     7
100
AcDbLine
 10
-52.19218729599095
 20
57.96529638723674
 30
0.0
 11
-48.84653426419666
 21
54.24957225984977
 31
0.0
  0
LINE
  5
BA
330
1F
100
AcDbEntity
  8
1
  6
Continuous
 62
     7
100
AcDbLine
 10
-51.17260426125958
 20
58.86734725737622
 30
0.0
 11
-47.89230911630704
 21
55.09379935626234
 31
0.0
  0
LINE
  5
BB
330
1F
100
AcDbEntity
  8
1
  6
Continuous
 62
     7
100
AcDbLine
 10
-55.15432893255071
 20
55.15432893255069
 30
0.0
 11
-49.85102807365161
 21
49.85102807365159
 31
0.0
  0
LINE
  5
BC
330
1F
100
AcDbEntity
  8
1
  6
Continuous
 62
     7
100
AcDbLine
 10
-56.1085044264148
 20
54.18335289580178
 30
0.0
 11
-52.51180542472154
 21
50.7100610435068
 31
0.0
  0
LINE
  5
BD
330
1F
100
AcDbEntity
  8
1
  6
Continuous
 62
     7
100
AcDbLine
 10
-57.0455887262953
 20
53.19587208487486
 30
0.0
 11
-53.38882021819945
 21
49.78588028456238
 31
0.0
  0
LINE
  5
BE
330
1F
100
AcDbEntity
  8
1
  6
Continuous
 62
     7
100
AcDbLine
 10
-57.96529638723676
 20
52.19218729599093
 30
0.0
 11
-54.24957225984978
 21
48.84653426419664
 31
0.0
  0
LINE
  5
BF
330
1F
100
AcDbEntity
  8
1
  6
Continuous
 62
     7
100
AcDbLine
 10
-58.86734725737622
 20
51.17260426125956
 30
0.0
 11
-55.09379935626236
 21
47.89230911630703
 31
0.0
  0
LINE
  5
C0
330
1F
100
AcDbEntity
  8
1
  6
Continuous
 62
     7
100
AcDbLine
 10
-59.75146656328028
 20
50.13743355555005
 30
0.0
 11
-52.09102213209051
 21
43.70955745868466
 31
0.0
  0
LINE
  5
C1
330
1F
100
AcDbEntity
  8
1
  6
Continuous
 62
     7
100
AcDbLine
 10
-63.10332556124589
 20
45.8472496788129
 30
0.0
 11
-59.05824058937117
 21
42.90832341735054
 31
0.0
  0
LINE
  5
C2
330
1F
100
AcDbEntity
  8
1
  6
Continuous
 62
     7
100
AcDbLine
 10
-62.29356978368886
 20
46.94157180585977
 30
0.0
 11
-58.30039223345238
 21
43.93249669009952
 31
0.0
  0
LINE
  5
C3
330
1F
100
AcDbEntity
  8
1
  6
Continuous
 62
     7
100
AcDbLine
 10
-61.46483878132432
 20
48.02159507540134
 30
0.0
 11
-57.52478501329071
 21
44.94328769877305
 31
0.0
  0
LINE
  5
C4
330
1F
100
AcDbEntity
  8
1
  6
Continuous
 62
     7
100
AcDbLine
 10
-60.61738499364373
 20
49.08699050188733
 30
0.0
 11
-56.73165518635888
 21
45.94038854663813
 31
0.0
  0
LINE
  5
C5
330
1F
100
AcDbEntity
  8
1
  6
Continuous
 62
     7
100
AcDbLine
 10
-63.89385945454136
 20
44.73896203538159
 30
0.0
 11
-57.75021912237393
 21
40.43713876274875
 31
0.0
  0
LINE
  5
C6
330
1F
100
AcDbEntity
  8
1
  6
Continuous
 62
     7
100
AcDbLine
 10
-64.66493065929326
 20
43.61704647071825
 30
0.0
 11
-60.51974279651805
 21
40.82108195336451
 31
0.0
  0
LINE
  5
C7
330
1F
100
AcDbEntity
  8
1
  6
Continuous
 62
     7
100
AcDbLine
 10
-65.41630429974308
 20
42.4818447311721
 30
0.0
 11
-61.22295146001595
 21
39.75864955609697
 31
0.0
  0
LINE
  5
C8
330
1F
100
AcDbEntity
  8
1
  6
Continuous
 62
     7
100
AcDbLine
 10
-66.14775150020122
 20
41.33370261018998
 30
0.0
 11
-61.9075110194191
 21
38.68410628902396
 31
0.0
  0
LINE
  5
C9
330
1F
100
AcDbEntity
  8
1
  6
Continuous
 62
     7
100
AcDbLine
 10
-66.85904945476476
 20
40.17296984298422
 30
0.0
 11
-62.5732129512542
 21
37.59777946843396
 31
0.0
  0
LINE
  5
CA
330
1F
100
AcDbEntity
  8
1
  6
Continuous
 62
     7
100
AcDbLine
 10
-67.54998149518622
 20
38.99999999999999
 30
0.0
 11
-58.88972745734183
 21
33.99999999999999
 31
0.0
  0
LINE
  5
CB
330
1F
100
AcDbEntity
  8
1
  6
Continuous
 62
     7
100
AcDbLine
 10
-70.10593561133501
 20
34.19294944954803
 30
0.0
 11
-65.61196537983919
 21
32.00109371560265
 31
0.0
  0
LINE
  5
CC
330
1F
100
AcDbEntity
  8
1
  6
Continuous
 62
     7
100
AcDbLine
 10
-69.49850888669272
 20
35.41125897968465
 30
0.0
 11
-65.04347626575085
 21
33.14130648098691
 31
0.0
  0
LINE
  5
CD
330
1F
100
AcDbEntity
  8
1
  6
Continuous
 62
     7
100
AcDbLine
 10
-68.86991224299632
 20
36.61878189729948
 30
0.0
 11
-64.45517427870168
 21
34.27142408337002
 31
0.0
  0
LINE
  5
CE
330
1F
100
AcDbEntity
  8
1
  6
Continuous
 62
     7
100
AcDbLine
 10
-68.22033715687287
 20
37.81515037921429
 30
0.0
 11
-63.8472386211759
 21
35.3911022779826
 31
0.0
  0
LINE
  5
CF
330
1F
100
AcDbEntity
  8
1
  6
Continuous
 62
     7
100
AcDbLine
 10
-70.6920073888587
 20
32.96422441577455
 30
0.0
 11
-63.89469898608384
 21
29.79458745271931
 31
0.0
  0
LINE
  5
D0
330
1F
100
AcDbEntity
  8
1
  6
Continuous
 62
     7
100
AcDbLine
 10
-71.25654569612288
 20
31.72545815991241
 30
0.0
 11
-66.68881840790986
 21
29.69177494453341
 31
0.0
  0
LINE
  5
D1
330
1F
100
AcDbEntity
  8
1
  6
Continuous
 62
     7
100
AcDbLine
 10
-71.79937856929034
 20
30.47702802216335
 30
0.0
 11
-67.19685430202814
 21
28.52337237971698
 31
0.0
  0
LINE
  5
D2
330
1F
100
AcDbEntity
  8
1
  6
Continuous
 62
     7
100
AcDbLine
 10
-72.32034065620942
 20
29.21931428644113
 30
0.0
 11
-67.68442138337548
 21
27.34628131936157
 31
0.0
  0
LINE
  5
D3
330
1F
100
AcDbEntity
  8
1
  6
Continuous
 62
     7
100
AcDbLine
 10
-72.81927326678174
 20
27.95270006453342
 30
0.0
 11
-68.15137113429573
 21
26.16086031680691
 31
0.0
  0
LINE
  5
D4
330
1F
100
AcDbEntity
  8
1
  6
Continuous
 62
     7
100
AcDbLine
 10
-73.29602442130084
 20
26.67757117940215
 30
0.0
 11
-63.89909821344177
 21
23.25736974614547
 31
0.0
  0
LINE
  5
D5
330
1F
100
AcDbEntity
  8
1
  6
Continuous
 62
     7
100
AcDbLine
 10
-74.97841228318887
 20
21.49971375372593
 30
0.0
 11
-70.17210380349728
 21
20.12152697464094
 31
0.0
  0
LINE
  5
D6
330
1F
100
AcDbEntity
  8
1
  6
Continuous
 62
     7
100
AcDbLine
 10
-74.59177096511679
 20
22.80499296837347
 30
0.0
 11
-69.81024718530161
 21
21.34313444475978
 31
0.0
  0
LINE
  5
D7
330
1F
100
AcDbEntity
  8
1
  6
Continuous
 62
     7
100
AcDbLine
 10
-74.182408271022
 20
24.1033255612459
 30
0.0
 11
-69.42712568954623
 21
22.55824058937116
 31
0.0
  0
LINE
  5
D8
330
1F
100
AcDbEntity
  8
1
  6
Continuous
 62
     7
100
AcDbLine
 10
-73.75044889674673
 20
25.39431604765822
 30
0.0
 11
-69.02285601875015
 21
23.76647527537244
 31
0.0
  0
LINE
  5
D9
330
1F
100
AcDbEntity
  8
1
  6
Continuous
 62
     7
100
AcDbLine
 10
-75.34221445054733
 20
20.18788551799662
 30
0.0
 11
-68.09777075337932
 21
18.24674267972771
 31
0.0
  0
LINE
  5
DA
330
1F
100
AcDbEntity
  8
1
  6
Continuous
 62
     7
100
AcDbLine
 10
-75.68306664952773
 20
18.86990785677408
 30
0.0
 11
-70.83158801814774
 21
17.66029837877574
 31
0.0
  0
LINE
  5
DB
330
1F
100
AcDbEntity
  8
1
  6
Continuous
 62
     7
100
AcDbLine
 10
-76.00086505324835
 20
17.54618223882147
 30
0.0
 11
-71.12901472932217
 21
16.42142696710214
 31
0.0
  0
LINE
  5
DC
330
1F
100
AcDbEntity
  8
1
  6
Continuous
 62
     7
100
AcDbLine
 10
-76.29551285723684
 20
16.21711188378523
 30
0.0
 11
-71.40477485356782
 21
15.17755342969643
 31
0.0
  0
LINE
  5
DD
330
1F
100
AcDbEntity
  8
1
  6
Continuous
 62
     7
100
AcDbLine
 10
-76.56692030891779
 20
14.88310163937049
 30
0.0
 11
-71.65878439167948
 21
13.92905666248777
 31
0.0
  0
LINE
  5
DE
330
1F
100
AcDbEntity
  8
1
  6
Continuous
 62
     7
100
AcDbLine
 10
-76.81500473495223
 20
13.54455785802057
 30
0.0
 11
-66.96692720483014
 21
11.80807608135126
 31
0.0
  0
LINE
  5
DF
330
1F
100
AcDbEntity
  8
1
  6
Continuous
 62
     7
100
AcDbLine
 10
-77.57270783872532
 20
8.15322013487697
 30
0.0
 11
-72.60009836188397
 21
7.6305778185387
 31
0.0
  0
LINE
  5
E0
330
1F
100
AcDbEntity
  8
1
  6
Continuous
 62
     7
100
AcDbLine
 10
-77.41859982802315
 20
9.5058087856015
 30
0.0
 11
-72.45586906981652
 21
8.89646206857577
 31
0.0
  0
LINE
  5
E1
330
1F
100
AcDbEntity
  8
1
  6
Continuous
 62
     7
100
AcDbLine
 10
-77.2409093618425
 20
10.8555018748851
 30
0.0
 11
-72.28956901813464
 21
10.15963637008478
 31
0.0
  0
LINE
  5
E2
330
1F
100
AcDbEntity
  8
1
  6
Continuous
 62
     7
100
AcDbLine
 10
-77.03969056642076
 20
12.20188827313801
 30
0.0
 11
-72.10124886344506
 21
11.41971594793685
 31
0.0
  0
LINE
  5
E3
330
1F
100
AcDbEntity
  8
1
  6
Continuous
 62
     7
100
AcDbLine
 10
-77.70318645115616
 20
6.79814793431734
 30
0.0
 11
-70.23172621546807
 21
6.1444798637099
 31
0.0
  0
LINE
  5
E4
330
1F
100
AcDbEntity
  8
1
  6
Continuous
 62
     7
100
AcDbLine
 10
-77.8099959202663
 20
5.44100495204177
 30
0.0
 11
-72.82217566896718
 21
5.09222258332115
 31
0.0
  0
LINE
  5
E5
330
1F
100
AcDbEntity
  8
1
  6
Continuous
 62
     7
100
AcDbLine
 10
-77.89310371085676
 20
4.08220458694962
 30
0.0
 11
-72.8999560370839
 21
3.8205248057349
 31
0.0
  0
LINE
  5
E6
330
1F
100
AcDbEntity
  8
1
  6
Continuous
 62
     7
100
AcDbLine
 10
-77.95248450748947
 20
2.72216074279508
 30
0.0
 11
-72.95553037239399
 21
2.54766325928257
 31
0.0
  0
LINE
  5
E7
330
1F
100
AcDbEntity
  8
1
  6
Continuous
 62
     7
100
AcDbLine
 10
-77.98812022219852
 20
1.36128770210811
 30
0.0
 11
-72.98888174641657
 21
1.2740256699217
 31
0.0
  0
LINE
  5
E8
330
1F
100
AcDbEntity
  8
1
  6
Continuous
 62
     7
100
AcDbLine
 10
-78.0
 20
0.0
 30
0.0
 11
-68.0
 21
0.0
 31
0.0
  0
LINE
  5
E9
330
1F
100
AcDbEntity
  8
1
  6
Continuous
 62
     7
100
AcDbLine
 10
79.29958065276467
 20
40.40515447681966
 30
0.0
 11
74.84454803182284
 21
38.13520197812193
 31
0.0
  0
LINE
  5
EA
330
1F
100
AcDbEntity
  8
1
  6
Continuous
 62
     7
100
AcDbLine
 10
79.9926701206258
 20
39.01503206422788
 30
0.0
 11
75.49869988912997
 21
36.82317633028249
 31
0.0
  0
LINE
  5
EB
330
1F
100
AcDbEntity
  8
1
  6
Continuous
 62
     7
100
AcDbLine
 10
80.66139304626181
 20
37.61302529492228
 30
0.0
 11
76.12985411107856
 21
35.49993398621878
 31
0.0
  0
LINE
  5
EC
330
1F
100
AcDbEntity
  8
1
  6
Continuous
 62
     7
100
AcDbLine
 10
81.30554573019144
 20
36.19956123374624
 30
0.0
 11
76.73781844197842
 21
34.16587801836724
 31
0.0
  0
LINE
  5
ED
330
1F
100
AcDbEntity
  8
1
  6
Continuous
 62
     7
100
AcDbLine
 10
78.58233576444445
 20
41.78296908794431
 30
0.0
 11
69.75285983585519
 21
37.0882534600854
 31
0.0
  0
LINE
  5
EE
330
1F
100
AcDbEntity
  8
1
  6
Continuous
 62
     7
100
AcDbLine
 10
75.47628055792188
 20
47.16281451675523
 30
0.0
 11
71.23604007713975
 21
44.5132181955892
 31
0.0
  0
LINE
  5
EF
330
1F
100
AcDbEntity
  8
1
  6
Continuous
 62
     7
100
AcDbLine
 10
76.28788976248795
 20
45.83838866699482
 30
0.0
 11
72.00205325897738
 21
43.26319829244454
 31
0.0
  0
LINE
  5
F0
330
1F
100
AcDbEntity
  8
1
  6
Continuous
 62
     7
100
AcDbLine
 10
77.07626093681503
 20
44.50000000000002
 30
0.0
 11
72.74613391789283
 21
42.00000000000001
 31
0.0
  0
LINE
  5
F1
330
1F
100
AcDbEntity
  8
1
  6
Continuous
 62
     7
100
AcDbLine
 10
77.84115393540621
 20
43.14805620192401
 30
0.0
 11
73.46805539970921
 21
40.72400810069233
 31
0.0
  0
LINE
  5
F2
330
1F
100
AcDbEntity
  8
1
  6
Continuous
 62
     7
100
AcDbLine
 10
71.07856039420902
 20
53.56153706053228
 30
0.0
 11
67.08538284397255
 21
50.55246194477203
 31
0.0
  0
LINE
  5
F3
330
1F
100
AcDbEntity
  8
1
  6
Continuous
 62
     7
100
AcDbLine
 10
72.00251249937028
 20
52.31288745403009
 30
0.0
 11
67.95742752749553
 21
49.37396119256772
 31
0.0
  0
LINE
  5
F4
330
1F
100
AcDbEntity
  8
1
  6
Continuous
 62
     7
100
AcDbLine
 10
72.90453194172022
 20
51.04830283524308
 30
0.0
 11
68.80877172027527
 21
48.18042065348788
 31
0.0
  0
LINE
  5
F5
330
1F
100
AcDbEntity
  8
1
  6
Continuous
 62
     7
100
AcDbLine
 10
73.78434395739869
 20
49.76816840889648
 30
0.0
 11
69.63915609462346
 21
46.97220389154273
 31
0.0
  0
LINE
  5
F6
330
1F
100
AcDbEntity
  8
1
  6
Continuous
 62
     7
100
AcDbLine
 10
74.6416805471427
 20
48.47287411633739
 30
0.0
 11
68.35165128755203
 21
44.38808135372473
 31
0.0
  0
LINE
  5
F7
330
1F
100
AcDbEntity
  8
1
  6
Continuous
 62
     7
100
AcDbLine
 10
70.13295707099822
 20
54.79387130398359
 30
0.0
 11
62.252849534931
 21
48.63725655072701
 31
0.0
  0
LINE
  5
F8
330
1F
100
AcDbEntity
  8
1
  6
Continuous
 62
     7
100
AcDbLine
 10
66.13988946748805
 20
59.55262396593837
 30
0.0
 11
62.42416534010108
 21
56.20697093414408
 31
0.0
  0
LINE
  5
F9
330
1F
100
AcDbEntity
  8
1
  6
Continuous
 62
     7
100
AcDbLine
 10
67.16915263982668
 20
58.38925358015514
 30
0.0
 11
63.39560473871281
 21
55.1089584352026
 31
0.0
  0
LINE
  5
FA
330
1F
100
AcDbEntity
  8
1
  6
Continuous
 62
     7
100
AcDbLine
 10
68.17795543758899
 20
57.20809726210197
 30
0.0
 11
64.34773322199413
 21
53.99415921366933
 31
0.0
  0
LINE
  5
FB
330
1F
100
AcDbEntity
  8
1
  6
Continuous
 62
     7
100
AcDbLine
 10
69.16599056967036
 20
56.00951480343551
 30
0.0
 11
65.28026076238554
 21
52.86291284818637
 31
0.0
  0
LINE
  5
FC
330
1F
100
AcDbEntity
  8
1
  6
Continuous
 62
     7
100
AcDbLine
 10
60.69785404556232
 20
65.09047944410615
 30
0.0
 11
57.28786224524984
 21
61.43371093601031
 31
0.0
  0
LINE
  5
FD
330
1F
100
AcDbEntity
  8
1
  6
Continuous
 62
     7
100
AcDbLine
 10
61.82459497085072
 20
64.02124223013993
 30
0.0
 11
58.35130311855576
 21
60.42454322844671
 31
0.0
  0
LINE
  5
FE
330
1F
100
AcDbEntity
  8
1
  6
Continuous
 62
     7
100
AcDbLine
 10
62.93250352560268
 20
62.93250352560271
 30
0.0
 11
59.39696961966997
 21
59.39696961967001
 31
0.0
  0
LINE
  5
FF
330
1F
100
AcDbEntity
  8
1
  6
Continuous
 62
     7
100
AcDbLine
 10
65.09047944410614
 20
60.69785404556235
 30
0.0
 11
59.60532668196236
 21
55.58286634509365
 31
0.0
  0
LINE
  5
100
330
1F
100
AcDbEntity
  8
1
  6
Continuous
 62
     7
100
AcDbLine
 10
59.55262396593834
 20
66.13988946748806
 30
0.0
 11
52.86131790234978
 21
58.70844121271416
 31
0.0
  0
LINE
  5
101
330
1F
100
AcDbEntity
  8
1
  6
Continuous
 62
     7
100
AcDbLine
 10
54.79387130398356
 20
70.13295707099824
 30
0.0
 11
51.71556392735526
 21
66.19290330296462
 31
0.0
  0
LINE
  5
102
330
1F
100
AcDbEntity
  8
1
  6
Continuous
 62
     7
100
AcDbLine
 10
56.00951480343551
 20
69.16599056967038
 30
0.0
 11
52.86291284818631
 21
65.28026076238554
 31
0.0
  0
LINE
  5
103
330
1F
100
AcDbEntity
  8
1
  6
Continuous
 62
     7
100
AcDbLine
 10
57.20809726210199
 20
68.17795543758908
 30
0.0
 11
53.99415921366928
 21
64.34773322199416
 31
0.0
  0
LINE
  5
104
330
1F
100
AcDbEntity
  8
1
  6
Continuous
 62
     7
100
AcDbLine
 10
58.38925358015514
 20
67.16915263982672
 30
0.0
 11
55.10895843520257
 21
63.39560473871282
 31
0.0
  0
LINE
  5
105
330
1F
100
AcDbEntity
  8
1
  6
Continuous
 62
     7
100
AcDbLine
 10
48.47287411633738
 20
74.64168054714271
 30
0.0
 11
45.74967894126225
 21
70.4483277074156
 31
0.0
  0
LINE
  5
106
330
1F
100
AcDbEntity
  8
1
  6
Continuous
 62
     7
100
AcDbLine
 10
49.76816840889644
 20
73.78434395739868
 30
0.0
 11
46.9722038915427
 21
69.63915609462347
 31
0.0
  0
LINE
  5
107
330
1F
100
AcDbEntity
  8
1
  6
Continuous
 62
     7
100
AcDbLine
 10
51.04830283524306
 20
72.90453194172025
 30
0.0
 11
48.18042065348786
 21
68.80877172027533
 31
0.0
  0
LINE
  5
108
330
1F
100
AcDbEntity
  8
1
  6
Continuous
 62
     7
100
AcDbLine
 10
52.3128874540301
 20
72.00251249937031
 30
0.0
 11
49.37396119256773
 21
67.95742752749558
 31
0.0
  0
LINE
  5
109
330
1F
100
AcDbEntity
  8
1
  6
Continuous
 62
     7
100
AcDbLine
 10
53.56153706053227
 20
71.07856039420908
 30
0.0
 11
49.04792438689192
 21
65.08879406885438
 31
0.0
  0
LINE
  5
10A
330
1F
100
AcDbEntity
  8
1
  6
Continuous
 62
     7
100
AcDbLine
 10
47.16281451675521
 20
75.47628055792191
 30
0.0
 11
41.86362187442318
 21
66.99579959635766
 31
0.0
  0
LINE
  5
10B
330
1F
100
AcDbEntity
  8
1
  6
Continuous
 62
     7
100
AcDbLine
 10
41.78296908794426
 20
78.58233576444448
 30
0.0
 11
39.4356112740148
 21
74.16759780014985
 31
0.0
  0
LINE
  5
10C
330
1F
100
AcDbEntity
  8
1
  6
Continuous
 62
     7
100
AcDbLine
 10
43.14805620192397
 20
77.84115393540621
 30
0.0
 11
40.72400810069229
 21
73.46805539970923
 31
0.0
  0
LINE
  5
10D
330
1F
100
AcDbEntity
  8
1
  6
Continuous
 62
     7
100
AcDbLine
 10
44.49999999999999
 20
77.07626093681505
 30
0.0
 11
41.99999999999999
 21
72.74613391789286
 31
0.0
  0
LINE
  5
10E
330
1F
100
AcDbEntity
  8
1
  6
Continuous
 62
     7
100
AcDbLine
 10
45.83838866699479
 20
76.28788976248796
 30
0.0
 11
43.26319829244454
 21
72.00205325897744
 31
0.0
  0
LINE
  5
10F
330
1F
100
AcDbEntity
  8
1
  6
Continuous
 62
     7
100
AcDbLine
 10
34.77507043554534
 20
81.92493195726716
 30
0.0
 11
32.82141479309897
 21
77.32240769000497
 31
0.0
  0
LINE
  5
110
330
1F
100
AcDbEntity
  8
1
  6
Continuous
 62
     7
100
AcDbLine
 10
36.19956123374619
 20
81.30554573019145
 30
0.0
 11
34.1658780183672
 21
76.73781844197845
 31
0.0
  0
LINE
  5
111
330
1F
100
AcDbEntity
  8
1
  6
Continuous
 62
     7
100
AcDbLine
 10
37.61302529492222
 20
80.66139304626182
 30
0.0
 11
35.49993398621874
 21
76.1298541110786
 31
0.0
  0
LINE
  5
112
330
1F
100
AcDbEntity
  8
1
  6
Continuous
 62
     7
100
AcDbLine
 10
39.01503206422787
 20
79.99267012062587
 30
0.0
 11
36.8231763302825
 21
75.49869988913002
 31
0.0
  0
LINE
  5
113
330
1F
100
AcDbEntity
  8
1
  6
Continuous
 62
     7
100
AcDbLine
 10
40.40515447681965
 20
79.29958065276475
 30
0.0
 11
37.00022572877305
 21
72.61703172135198
 31
0.0
  0
LINE
  5
114
330
1F
100
AcDbEntity
  8
1
  6
Continuous
 62
     7
100
AcDbLine
 10
33.33998681401615
 20
82.51936305644405
 30
0.0
 11
29.59392087985705
 21
73.2475245107762
 31
0.0
  0
LINE
  5
115
330
1F
100
AcDbEntity
  8
1
  6
Continuous
 62
     7
100
AcDbLine
 10
27.5025124993703
 20
84.64402995026866
 30
0.0
 11
25.95742752749557
 21
79.88874736879289
 31
0.0
  0
LINE
  5
116
330
1F
100
AcDbEntity
  8
1
  6
Continuous
 62
     7
100
AcDbLine
 10
28.97556574668693
 20
84.15115322833918
 30
0.0
 11
27.34772497440114
 21
79.4235603503426
 31
0.0
  0
LINE
  5
117
330
1F
100
AcDbEntity
  8
1
  6
Continuous
 62
     7
100
AcDbLine
 10
30.43979275598452
 20
83.63264324994587
 30
0.0
 11
28.72969203935618
 21
78.93418014601633
 31
0.0
  0
LINE
  5
118
330
1F
100
AcDbEntity
  8
1
  6
Continuous
 62
     7
100
AcDbLine
 10
31.89474750953173
 20
83.08865795825098
 30
0.0
 11
30.1029077618052
 21
78.42075582576491
 31
0.0
  0
LINE
  5
119
330
1F
100
AcDbEntity
  8
1
  6
Continuous
 62
     7
100
AcDbLine
 10
20.02064383660397
 20
86.71893576588592
 30
0.0
 11
18.89588856488464
 21
81.84708544195973
 31
0.0
  0
LINE
  5
11A
330
1F
100
AcDbEntity
  8
1
  6
Continuous
 62
     7
100
AcDbLine
 10
21.53104870837041
 20
86.35631963856366
 30
0.0
 11
20.32143923037207
 21
81.50484100718367
 31
0.0
  0
LINE
  5
11B
330
1F
100
AcDbEntity
  8
1
  6
Continuous
 62
     7
100
AcDbLine
 10
23.03489501412433
 20
85.96739853972706
 30
0.0
 11
21.74079978861174
 21
81.13776940828174
 31
0.0
  0
LINE
  5
11C
330
1F
100
AcDbEntity
  8
1
  6
Continuous
 62
     7
100
AcDbLine
 10
24.53172466771293
 20
85.55229093851038
 30
0.0
 11
23.15353788862793
 21
80.74598245881879
 31
0.0
  0
LINE
  5
11D
330
1F
100
AcDbEntity
  8
1
  6
Continuous
 62
     7
100
AcDbLine
 10
26.02108172032357
 20
85.11112328071017
 30
0.0
 11
23.82829393490304
 21
77.93883761098741
 31
0.0
  0
LINE
  5
11E
330
1F
100
AcDbEntity
  8
1
  6
Continuous
 62
     7
100
AcDbLine
 10
18.50414048278058
 20
87.05513646530871
 30
0.0
 11
16.42502357460299
 21
77.27366045797065
 31
0.0
  0
LINE
  5
11F
330
1F
100
AcDbEntity
  8
1
  6
Continuous
 62
     7
100
AcDbLine
 10
12.38640598544581
 20
88.13385811799975
 30
0.0
 11
11.69054048064548
 21
83.1825177742919
 31
0.0
  0
LINE
  5
120
330
1F
100
AcDbEntity
  8
1
  6
Continuous
 62
     7
100
AcDbLine
 10
13.92266738858053
 20
87.90426231296725
 30
0.0
 11
13.14049506337938
 21
82.96582060999155
 31
0.0
  0
LINE
  5
121
330
1F
100
AcDbEntity
  8
1
  6
Continuous
 62
     7
100
AcDbLine
 10
15.4546878123568
 20
87.64789001808654
 30
0.0
 11
14.58644692402215
 21
82.7238512530255
 31
0.0
  0
LINE
  5
122
330
1F
100
AcDbEntity
  8
1
  6
Continuous
 62
     7
100
AcDbLine
 10
16.98200058851249
 20
87.36481932684211
 30
0.0
 11
16.02795561162977
 21
82.45668340960378
 31
0.0
  0
LINE
  5
123
330
1F
100
AcDbEntity
  8
1
  6
Continuous
 62
     7
100
AcDbLine
 10
4.65790010562199
 20
88.87802859315705
 30
0.0
 11
4.39622032440727
 21
83.88488091938419
 31
0.0
  0
LINE
  5
124
330
1F
100
AcDbEntity
  8
1
  6
Continuous
 62
     7
100
AcDbLine
 10
6.20832616322714
 20
88.78320047312434
 30
0.0
 11
5.85954379450651
 21
83.79538022182521
 31
0.0
  0
LINE
  5
125
330
1F
100
AcDbEntity
  8
1
  6
Continuous
 62
     7
100
AcDbLine
 10
7.75686110454156
 20
88.66132813016533
 30
0.0
 11
7.32108239080329
 21
83.68035463970664
 31
0.0
  0
LINE
  5
126
330
1F
100
AcDbEntity
  8
1
  6
Continuous
 62
     7
100
AcDbLine
 10
9.30303323082116
 20
88.51244868777634
 30
0.0
 11
8.78039091448288
 21
83.53983921093494
 31
0.0
  0
LINE
  5
127
330
1F
100
AcDbEntity
  8
1
  6
Continuous
 62
     7
100
AcDbLine
 10
10.84637156305813
 20
88.33660749607766
 30
0.0
 11
9.93235148751952
 21
80.89251135876776
 31
0.0
  0
LINE
  5
128
330
1F
100
AcDbEntity
  8
1
  6
Continuous
 62
     7
100
AcDbLine
 10
3.10605520652259
 20
88.94578360469953
 30
0.0
 11
2.75706023949758
 21
78.95187533450857
 31
0.0
  0
LINE
  5
129
330
1F
100
AcDbEntity
  8
1
  6
Continuous
 62
     7
100
AcDbLine
 10
-3.1060552065226
 20
88.94578360469951
 30
0.0
 11
-2.93155772301009
 21
83.94882946960404
 31
0.0
  0
LINE
  5
12A
330
1F
100
AcDbEntity
  8
1
  6
Continuous
 62
     7
100
AcDbLine
 10
-1.55326417291825
 20
88.98644486891882
 30
0.0
 11
-1.46600214073183
 21
83.98720639313686
 31
0.0
  0
LINE
  5
12B
330
1F
100
AcDbEntity
  8
1
  6
Continuous
 62
     7
100
AcDbLine
 10
0.0
 20
89.00000000000001
 30
0.0
 11
0.0
 21
84.00000000000003
 31
0.0
  0
LINE
  5
12C
330
1F
100
AcDbEntity
  8
1
  6
Continuous
 62
     7
100
AcDbLine
 10
1.55326417291822
 20
88.9864448689188
 30
0.0
 11
1.4660021407318
 21
83.98720639313684
 31
0.0
  0
LINE
  5
12D
330
1F
100
AcDbEntity
  8
1
  6
Continuous
 62
     7
100
AcDbLine
 10
-10.84637156305814
 20
88.33660749607765
 30
0.0
 11
-10.2370248460324
 21
83.37387673787104
 31
0.0
  0
LINE
  5
12E
330
1F
100
AcDbEntity
  8
1
  6
Continuous
 62
     7
100
AcDbLine
 10
-9.30303323082117
 20
88.51244868777631
 30
0.0
 11
-8.7803909144829
 21
83.53983921093494
 31
0.0
  0
LINE
  5
12F
330
1F
100
AcDbEntity
  8
1
  6
Continuous
 62
     7
100
AcDbLine
 10
-7.75686110454159
 20
88.66132813016533
 30
0.0
 11
-7.32108239080328
 21
83.68035463970665
 31
0.0
  0
LINE
  5
130
330
1F
100
AcDbEntity
  8
1
  6
Continuous
 62
     7
100
AcDbLine
 10
-6.20832616322715
 20
88.78320047312437
 30
0.0
 11
-5.85954379450652
 21
83.79538022182525
 31
0.0
  0
LINE
  5
131
330
1F
100
AcDbEntity
  8
1
  6
Continuous
 62
     7
100
AcDbLine
 10
-4.657900105622
 20
88.87802859315708
 30
0.0
 11
-4.26538043379992
 21
81.3883070824978
 31
0.0
  0
LINE
  5
132
330
1F
100
AcDbEntity
  8
1
  6
Continuous
 62
     7
100
AcDbLine
 10
-12.38640598544582
 20
88.13385811799978
 30
0.0
 11
-10.99467497584516
 21
78.23117743058407
 31
0.0
  0
LINE
  5
133
330
1F
100
AcDbEntity
  8
1
  6
Continuous
 62
     7
100
AcDbLine
 10
-21.53104870837044
 20
86.35631963856369
 30
0.0
 11
-20.3214392303721
 21
81.5048410071837
 31
0.0
  0
LINE
  5
134
330
1F
100
AcDbEntity
  8
1
  6
Continuous
 62
     7
100
AcDbLine
 10
-20.02064383660399
 20
86.71893576588593
 30
0.0
 11
-18.89588856488467
 21
81.84708544195976
 31
0.0
  0
LINE
  5
135
330
1F
100
AcDbEntity
  8
1
  6
Continuous
 62
     7
100
AcDbLine
 10
-18.50414048278059
 20
87.05513646530871
 30
0.0
 11
-17.46458202869179
 21
82.16439846163966
 31
0.0
  0
LINE
  5
136
330
1F
100
AcDbEntity
  8
1
  6
Continuous
 62
     7
100
AcDbLine
 10
-13.92266738858054
 20
87.90426231296729
 30
0.0
 11
-13.14049506337938
 21
82.96582060999161
 31
0.0
  0
LINE
  5
137
330
1F
100
AcDbEntity
  8
1
  6
Continuous
 62
     7
100
AcDbLine
 10
-28.97556574668695
 20
84.15115322833918
 30
0.0
 11
-27.34772497440117
 21
79.42356035034261
 31
0.0
  0
LINE
  5
138
330
1F
100
AcDbEntity
  8
1
  6
Continuous
 62
     7
100
AcDbLine
 10
-27.50251249937033
 20
84.64402995026866
 30
0.0
 11
-25.95742752749559
 21
79.88874736879289
 31
0.0
  0
LINE
  5
139
330
1F
100
AcDbEntity
  8
1
  6
Continuous
 62
     7
100
AcDbLine
 10
-26.02108172032358
 20
85.11112328071015
 30
0.0
 11
-24.55922319670989
 21
80.32959950089497
 31
0.0
  0
LINE
  5
13A
330
1F
100
AcDbEntity
  8
1
  6
Continuous
 62
     7
100
AcDbLine
 10
-24.53172466771294
 20
85.55229093851038
 30
0.0
 11
-23.15353788862794
 21
80.74598245881877
 31
0.0
  0
LINE
  5
13B
330
1F
100
AcDbEntity
  8
1
  6
Continuous
 62
     7
100
AcDbLine
 10
-23.03489501412436
 20
85.96739853972706
 30
0.0
 11
-21.09375217585545
 21
78.72295484255906
 31
0.0
  0
LINE
  5
13C
330
1F
100
AcDbEntity
  8
1
  6
Continuous
 62
     7
100
AcDbLine
 10
-30.43979275598452
 20
83.63264324994583
 30
0.0
 11
-27.01959132272783
 21
74.23571704208675
 31
0.0
  0
LINE
  5
13D
330
1F
100
AcDbEntity
  8
1
  6
Continuous
 62
     7
100
AcDbLine
 10
-36.19956123374622
 20
81.30554573019148
 30
0.0
 11
-34.16587801836722
 21
76.73781844197848
 31
0.0
  0
LINE
  5
13E
330
1F
100
AcDbEntity
  8
1
  6
Continuous
 62
     7
100
AcDbLine
 10
-34.77507043554537
 20
81.92493195726718
 30
0.0
 11
-32.82141479309901
 21
77.32240769000499
 31
0.0
  0
LINE
  5
13F
330
1F
100
AcDbEntity
  8
1
  6
Continuous
 62
     7
100
AcDbLine
 10
-33.33998681401619
 20
82.51936305644409
 30
0.0
 11
-31.46695384693662
 21
77.88344378361015
 31
0.0
  0
LINE
  5
140
330
1F
100
AcDbEntity
  8
1
  6
Continuous
 62
     7
100
AcDbLine
 10
-31.89474750953173
 20
83.08865795825096
 30
0.0
 11
-30.10290776180523
 21
78.42075582576496
 31
0.0
  0
LINE
  5
141
330
1F
100
AcDbEntity
  8
1
  6
Continuous
 62
     7
100
AcDbLine
 10
-43.148056201924
 20
77.84115393540621
 30
0.0
 11
-40.72400810069232
 21
73.46805539970923
 31
0.0
  0
LINE
  5
142
330
1F
100
AcDbEntity
  8
1
  6
Continuous
 62
     7
100
AcDbLine
 10
-41.78296908794428
 20
78.58233576444449
 30
0.0
 11
-39.43561127401483
 21
74.16759780014986
 31
0.0
  0
LINE
  5
143
330
1F
100
AcDbEntity
  8
1
  6
Continuous
 62
     7
100
AcDbLine
 10
-40.40515447681967
 20
79.29958065276473
 30
0.0
 11
-38.13520197812193
 21
74.8445480318229
 31
0.0
  0
LINE
  5
144
330
1F
100
AcDbEntity
  8
1
  6
Continuous
 62
     7
100
AcDbLine
 10
-37.61302529492225
 20
80.66139304626184
 30
0.0
 11
-34.44338833186701
 21
73.86408464348696
 31
0.0
  0
LINE
  5
145
330
1F
100
AcDbEntity
  8
1
  6
Continuous
 62
     7
100
AcDbLine
 10
-44.5
 20
77.07626093681503
 30
0.0
 11
-39.5
 21
68.41600689897064
 31
0.0
  0
LINE
  5
146
330
1F
100
AcDbEntity
  8
1
  6
Continuous
 62
     7
100
AcDbLine
 10
-49.76816840889647
 20
73.7843439573987
 30
0.0
 11
-46.97220389154273
 21
69.6391560946235
 31
0.0
  0
LINE
  5
147
330
1F
100
AcDbEntity
  8
1
  6
Continuous
 62
     7
100
AcDbLine
 10
-48.47287411633741
 20
74.64168054714273
 30
0.0
 11
-45.74967894126228
 21
70.44832770741561
 31
0.0
  0
LINE
  5
148
330
1F
100
AcDbEntity
  8
1
  6
Continuous
 62
     7
100
AcDbLine
 10
-47.16281451675525
 20
75.47628055792191
 30
0.0
 11
-44.51321819558922
 21
71.23604007713978
 31
0.0
  0
LINE
  5
149
330
1F
100
AcDbEntity
  8
1
  6
Continuous
 62
     7
100
AcDbLine
 10
-45.83838866699483
 20
76.28788976248799
 30
0.0
 11
-43.26319829244456
 21
72.00205325897743
 31
0.0
  0
LINE
  5
14A
330
1F
100
AcDbEntity
  8
1
  6
Continuous
 62
     7
100
AcDbLine
 10
-56.00951480343553
 20
69.1659905696704
 30
0.0
 11
-52.86291284818634
 21
65.28026076238555
 31
0.0
  0
LINE
  5
14B
330
1F
100
AcDbEntity
  8
1
  6
Continuous
 62
     7
100
AcDbLine
 10
-54.79387130398358
 20
70.13295707099824
 30
0.0
 11
-51.7155639273553
 21
66.19290330296464
 31
0.0
  0
LINE
  5
14C
330
1F
100
AcDbEntity
  8
1
  6
Continuous
 62
     7
100
AcDbLine
 10
-53.5615370605323
 20
71.07856039420906
 30
0.0
 11
-50.55246194477206
 21
67.0853828439726
 31
0.0
  0
LINE
  5
14D
330
1F
100
AcDbEntity
  8
1
  6
Continuous
 62
     7
100
AcDbLine
 10
-52.31288745403011
 20
72.00251249937033
 30
0.0
 11
-49.37396119256774
 21
67.95742752749557
 31
0.0
  0
LINE
  5
14E
330
1F
100
AcDbEntity
  8
1
  6
Continuous
 62
     7
100
AcDbLine
 10
-51.04830283524311
 20
72.90453194172025
 30
0.0
 11
-46.74647956261026
 21
66.76089160955283
 31
0.0
  0
LINE
  5
14F
330
1F
100
AcDbEntity
  8
1
  6
Continuous
 62
     7
100
AcDbLine
 10
-57.20809726210199
 20
68.17795543758903
 30
0.0
 11
-50.7802211652366
 21
60.51751100639925
 31
0.0
  0
LINE
  5
150
330
1F
100
AcDbEntity
  8
1
  6
Continuous
 62
     7
100
AcDbLine
 10
-61.82459497085078
 20
64.02124223013995
 30
0.0
 11
-58.35130311855578
 21
60.42454322844669
 31
0.0
  0
LINE
  5
151
330
1F
100
AcDbEntity
  8
1
  6
Continuous
 62
     7
100
AcDbLine
 10
-60.69785404556237
 20
65.09047944410617
 30
0.0
 11
-57.28786224524989
 21
61.43371093601031
 31
0.0
  0
LINE
  5
152
330
1F
100
AcDbEntity
  8
1
  6
Continuous
 62
     7
100
AcDbLine
 10
-59.55262396593839
 20
66.13988946748809
 30
0.0
 11
-56.2069709341441
 21
62.42416534010111
 31
0.0
  0
LINE
  5
153
330
1F
100
AcDbEntity
  8
1
  6
Continuous
 62
     7
100
AcDbLine
 10
-58.38925358015517
 20
67.16915263982671
 30
0.0
 11
-55.10895843520262
 21
63.39560473871284
 31
0.0
  0
LINE
  5
154
330
1F
100
AcDbEntity
  8
1
  6
Continuous
 62
     7
100
AcDbLine
 10
-67.16915263982671
 20
58.38925358015513
 30
0.0
 11
-63.39560473871285
 21
55.1089584352026
 31
0.0
  0
LINE
  5
155
330
1F
100
AcDbEntity
  8
1
  6
Continuous
 62
     7
100
AcDbLine
 10
-66.1398894674881
 20
59.55262396593837
 30
0.0
 11
-62.42416534010113
 21
56.20697093414408
 31
0.0
  0
LINE
  5
156
330
1F
100
AcDbEntity
  8
1
  6
Continuous
 62
     7
100
AcDbLine
 10
-65.09047944410618
 20
60.69785404556235
 30
0.0
 11
-61.43371093601033
 21
57.28786224524987
 31
0.0
  0
LINE
  5
157
330
1F
100
AcDbEntity
  8
1
  6
Continuous
 62
     7
100
AcDbLine
 10
-64.02124223013995
 20
61.82459497085075
 30
0.0
 11
-60.4245432284467
 21
58.35130311855576
 31
0.0
  0
LINE
  5
158
330
1F
100
AcDbEntity
  8
1
  6
Continuous
 62
     7
100
AcDbLine
 10
-62.93250352560273
 20
62.93250352560271
 30
0.0
 11
-57.62920266670363
 21
57.62920266670362
 31
0.0
  0
LINE
  5
159
330
1F
100
AcDbEntity
  8
1
  6
Continuous
 62
     7
100
AcDbLine
 10
-68.17795543758905
 20
57.20809726210199
 30
0.0
 11
-60.51751100639926
 21
50.78022116523659
 31
0.0
  0
LINE
  5
15A
330
1F
100
AcDbEntity
  8
1
  6
Continuous
 62
     7
100
AcDbLine
 10
-72.00251249937034
 20
52.3128874540301
 30
0.0
 11
-67.95742752749558
 21
49.37396119256774
 31
0.0
  0
LINE
  5
15B
330
1F
100
AcDbEntity
  8
1
  6
Continuous
 62
     7
100
AcDbLine
 10
-71.07856039420908
 20
53.5615370605323
 30
0.0
 11
-67.08538284397261
 21
50.55246194477206
 31
0.0
  0
LINE
  5
15C
330
1F
100
AcDbEntity
  8
1
  6
Continuous
 62
     7
100
AcDbLine
 10
-70.13295707099826
 20
54.79387130398359
 30
0.0
 11
-66.19290330296465
 21
51.7155639273553
 31
0.0
  0
LINE
  5
15D
330
1F
100
AcDbEntity
  8
1
  6
Continuous
 62
     7
100
AcDbLine
 10
-69.16599056967041
 20
56.00951480343554
 30
0.0
 11
-65.28026076238555
 21
52.86291284818635
 31
0.0
  0
LINE
  5
15E
330
1F
100
AcDbEntity
  8
1
  6
Continuous
 62
     7
100
AcDbLine
 10
-76.28788976248799
 20
45.83838866699482
 30
0.0
 11
-72.00205325897744
 21
43.26319829244455
 31
0.0
  0
LINE
  5
15F
330
1F
100
AcDbEntity
  8
1
  6
Continuous
 62
     7
100
AcDbLine
 10
-75.47628055792191
 20
47.16281451675524
 30
0.0
 11
-71.23604007713978
 21
44.51321819558921
 31
0.0
  0
LINE
  5
160
330
1F
100
AcDbEntity
  8
1
  6
Continuous
 62
     7
100
AcDbLine
 10
-74.64168054714274
 20
48.47287411633741
 30
0.0
 11
-70.44832770741561
 21
45.74967894126227
 31
0.0
  0
LINE
  5
161
330
1F
100
AcDbEntity
  8
1
  6
Continuous
 62
     7
100
AcDbLine
 10
-73.78434395739872
 20
49.76816840889646
 30
0.0
 11
-69.6391560946235
 21
46.97220389154273
 31
0.0
  0
LINE
  5
162
330
1F
100
AcDbEntity
  8
1
  6
Continuous
 62
     7
100
AcDbLine
 10
-72.90453194172028
 20
51.0483028352431
 30
0.0
 11
-66.76089160955284
 21
46.74647956261025
 31
0.0
  0
LINE
  5
163
330
1F
100
AcDbEntity
  8
1
  6
Continuous
 62
     7
100
AcDbLine
 10
-77.07626093681503
 20
44.49999999999999
 30
0.0
 11
-68.41600689897065
 21
39.49999999999999
 31
0.0
  0
LINE
  5
164
330
1F
100
AcDbEntity
  8
1
  6
Continuous
 62
     7
100
AcDbLine
 10
-79.99267012062587
 20
39.01503206422789
 30
0.0
 11
-75.49869988913004
 21
36.8231763302825
 31
0.0
  0
LINE
  5
165
330
1F
100
AcDbEntity
  8
1
  6
Continuous
 62
     7
100
AcDbLine
 10
-79.29958065276475
 20
40.40515447681966
 30
0.0
 11
-74.84454803182292
 21
38.13520197812193
 31
0.0
  0
LINE
  5
166
330
1F
100
AcDbEntity
  8
1
  6
Continuous
 62
     7
100
AcDbLine
 10
-78.58233576444451
 20
41.78296908794428
 30
0.0
 11
-74.16759780014988
 21
39.43561127401482
 31
0.0
  0
LINE
  5
167
330
1F
100
AcDbEntity
  8
1
  6
Continuous
 62
     7
100
AcDbLine
 10
-77.84115393540624
 20
43.14805620192399
 30
0.0
 11
-73.46805539970926
 21
40.72400810069231
 31
0.0
  0
LINE
  5
168
330
1F
100
AcDbEntity
  8
1
  6
Continuous
 62
     7
100
AcDbLine
 10
-83.08865795825095
 20
31.89474750953172
 30
0.0
 11
-78.42075582576494
 21
30.10290776180522
 31
0.0
  0
LINE
  5
169
330
1F
100
AcDbEntity
  8
1
  6
Continuous
 62
     7
100
AcDbLine
 10
-82.51936305644408
 20
33.33998681401616
 30
0.0
 11
-77.88344378361015
 21
31.46695384693661
 31
0.0
  0
LINE
  5
16A
330
1F
100
AcDbEntity
  8
1
  6
Continuous
 62
     7
100
AcDbLine
 10
-81.92493195726719
 20
34.77507043554536
 30
0.0
 11
-77.32240769000499
 21
32.821414793099
 31
0.0
  0
LINE
  5
16B
330
1F
100
AcDbEntity
  8
1
  6
Continuous
 62
     7
100
AcDbLine
 10
-81.30554573019148
 20
36.19956123374622
 30
0.0
 11
-76.73781844197848
 21
34.16587801836721
 31
0.0
  0
LINE
  5
16C
330
1F
100
AcDbEntity
  8
1
  6
Continuous
 62
     7
100
AcDbLine
 10
-80.66139304626185
 20
37.61302529492225
 30
0.0
 11
-73.86408464348698
 21
34.443388331867
 31
0.0
  0
LINE
  5
16D
330
1F
100
AcDbEntity
  8
1
  6
Continuous
 62
     7
100
AcDbLine
 10
-83.63264324994584
 20
30.43979275598451
 30
0.0
 11
-74.23571704208676
 21
27.01959132272782
 31
0.0
  0
LINE
  5
16E
330
1F
100
AcDbEntity
  8
1
  6
Continuous
 62
     7
100
AcDbLine
 10
-85.5522909385104
 20
24.53172466771293
 30
0.0
 11
-80.74598245881879
 21
23.15353788862793
 31
0.0
  0
LINE
  5
16F
330
1F
100
AcDbEntity
  8
1
  6
Continuous
 62
     7
100
AcDbLine
 10
-85.11112328071017
 20
26.02108172032357
 30
0.0
 11
-80.329599500895
 21
24.55922319670989
 31
0.0
  0
LINE
  5
170
330
1F
100
AcDbEntity
  8
1
  6
Continuous
 62
     7
100
AcDbLine
 10
-84.64402995026869
 20
27.50251249937033
 30
0.0
 11
-79.88874736879291
 21
25.95742752749559
 31
0.0
  0
LINE
  5
171
330
1F
100
AcDbEntity
  8
1
  6
Continuous
 62
     7
100
AcDbLine
 10
-84.15115322833921
 20
28.97556574668695
 30
0.0
 11
-79.42356035034261
 21
27.34772497440116
 31
0.0
  0
LINE
  5
172
330
1F
100
AcDbEntity
  8
1
  6
Continuous
 62
     7
100
AcDbLine
 10
-87.3648193268421
 20
16.98200058851249
 30
0.0
 11
-82.45668340960378
 21
16.02795561162976
 31
0.0
  0
LINE
  5
173
330
1F
100
AcDbEntity
  8
1
  6
Continuous
 62
     7
100
AcDbLine
 10
-87.05513646530871
 20
18.50414048278058
 30
0.0
 11
-82.16439846163968
 21
17.46458202869178
 31
0.0
  0
LINE
  5
174
330
1F
100
AcDbEntity
  8
1
  6
Continuous
 62
     7
100
AcDbLine
 10
-86.71893576588594
 20
20.02064383660398
 30
0.0
 11
-81.84708544195976
 21
18.89588856488466
 31
0.0
  0
LINE
  5
175
330
1F
100
AcDbEntity
  8
1
  6
Continuous
 62
     7
100
AcDbLine
 10
-86.35631963856369
 20
21.53104870837043
 30
0.0
 11
-81.5048410071837
 21
20.32143923037209
 31
0.0
  0
LINE
  5
176
330
1F
100
AcDbEntity
  8
1
  6
Continuous
 62
     7
100
AcDbLine
 10
-85.96739853972709
 20
23.03489501412434
 30
0.0
 11
-78.72295484255908
 21
21.09375217585544
 31
0.0
  0
LINE
  5
177
330
1F
100
AcDbEntity
  8
1
  6
Continuous
 62
     7
100
AcDbLine
 10
-87.64789001808651
 20
15.4546878123568
 30
0.0
 11
-77.79981248796443
 21
13.7182060356875
 31
0.0
  0
LINE
  5
178
330
1F
100
AcDbEntity
  8
1
  6
Continuous
 62
     7
100
AcDbLine
 10
-88.51244868777634
 20
9.30303323082116
 30
0.0
 11
-83.53983921093497
 21
8.78039091448289
 31
0.0
  0
LINE
  5
179
330
1F
100
AcDbEntity
  8
1
  6
Continuous
 62
     7
100
AcDbLine
 10
-88.33660749607768
 20
10.84637156305813
 30
0.0
 11
-83.37387673787107
 21
10.23702484603239
 31
0.0
  0
LINE
  5
17A
330
1F
100
AcDbEntity
  8
1
  6
Continuous
 62
     7
100
AcDbLine
 10
-88.13385811799978
 20
12.38640598544583
 30
0.0
 11
-83.18251777429192
 21
11.6905404806455
 31
0.0
  0
LINE
  5
17B
330
1F
100
AcDbEntity
  8
1
  6
Continuous
 62
     7
100
AcDbLine
 10
-87.90426231296728
 20
13.92266738858055
 30
0.0
 11
-82.96582060999158
 21
13.14049506337939
 31
0.0
  0
LINE
  5
17C
330
1F
100
AcDbEntity
  8
1
  6
Continuous
 62
     7
100
AcDbLine
 10
-88.98644486891882
 20
1.55326417291823
 30
0.0
 11
-83.98720639313687
 21
1.46600214073181
 31
0.0
  0
LINE
  5
17D
330
1F
100
AcDbEntity
  8
1
  6
Continuous
 62
     7
100
AcDbLine
 10
-88.94578360469953
 20
3.10605520652259
 30
0.0
 11
-83.94882946960405
 21
2.93155772301008
 31
0.0
  0
LINE
  5
17E
330
1F
100
AcDbEntity
  8
1
  6
Continuous
 62
     7
100
AcDbLine
 10
-88.87802859315708
 20
4.657900105622
 30
0.0
 11
-83.88488091938422
 21
4.39622032440728
 31
0.0
  0
LINE
  5
17F
330
1F
100
AcDbEntity
  8
1
  6
Continuous
 62
     7
100
AcDbLine
 10
-88.78320047312437
 20
6.20832616322715
 30
0.0
 11
-83.79538022182524
 21
5.85954379450652
 31
0.0
  0
LINE
  5
180
330
1F
100
AcDbEntity
  8
1
  6
Continuous
 62
     7
100
AcDbLine
 10
-88.66132813016536
 20
7.75686110454158
 30
0.0
 11
-81.18986789447727
 21
7.10319303393414
 31
0.0
  0
LINE
  5
181
330
1F
100
AcDbEntity
  8
1
  6
Continuous
 62
     7
100
AcDbLine
 10
-89.0
 20
0.0
 30
0.0
 11
-79.0
 21
0.0
 31
0.0
  0
ARC
  5
182
102
{ACAD_REACTORS
330
19F
330
19F
102
}
330
1F
100
AcDbEntity
  8
1
  6
Continuous
 62
     7
100
AcDbCircle
 10
0.0
 20
0.0
 30
0.0
 40
88.9999999999994
100
AcDbArc
 50
115.8390565874683
 51
116.1609434125318
  0
ARC
  5
183
330
1F
100
AcDbEntity
  8
1
  6
Continuous
 62
     7
100
AcDbCircle
 10
0.0
 20
0.0
 30
0.0
 40
88.99999999999939
100
AcDbArc
 50
44.16094341253172
 51
115.8390565874683
  0
ARC
  5
184
102
{ACAD_REACTORS
330
19E
330
19E
102
}
330
1F
100
AcDbEntity
  8
1
  6
Continuous
 62
     7
100
AcDbCircle
 10
0.0
 20
0.0
 30
0.0
 40
88.99999999999939
100
AcDbArc
 50
43.83905658746829
 51
44.16094341253172
  0
ARC
  5
185
330
1F
100
AcDbEntity
  8
1
  6
Continuous
 62
     7
100
AcDbCircle
 10
0.0
 20
0.0
 30
0.0
 40
89.00000000000001
100
AcDbArc
 50
-29.6781119050049
 51
43.83905658746829
  0
ARC
  5
186
330
1F
100
AcDbEntity
  8
1
  6
Continuous
 62
     7
100
AcDbCircle
 10
0.0
 20
0.0
 30
0.0
 40
88.99999999999942
100
AcDbArc
 50
-30.32188809499508
 51
-29.6781119050049
  0
ARC
  5
187
330
1F
100
AcDbEntity
  8
1
  6
Continuous
 62
     7
100
AcDbCircle
 10
0.0
 20
0.0
 30
0.0
 40
88.99999999999999
100
AcDbArc
 50
-101.6781119050049
 51
-30.32188809499508
  0
ARC
  5
188
330
1F
100
AcDbEntity
  8
1
  6
Continuous
 62
     7
100
AcDbCircle
 10
0.0
 20
0.0
 30
0.0
 40
89.0
100
AcDbArc
 50
-102.3218880949951
 51
-101.6781119050049
  0
ARC
  5
189
330
1F
100
AcDbEntity
  8
1
  6
Continuous
 62
     7
100
AcDbCircle
 10
0.0
 20
0.0
 30
0.0
 40
88.99999999999939
100
AcDbArc
 50
116.1609434125318
 51
-102.3218880949951
  0
MTEXT
  5
18B
330
1F
100
AcDbEntity
  8
1
 62
     7
100
AcDbMText
 10
9.9440050404301
 20
59.55824258667219
 30
0.0
 40
5.0
 41
0.0
 71
     7
 72
     1
  1
OT
  7
CONVERTER_1
 11
0.9781476007338055
 21
-0.2079116908177599
 31
0.0
 73
     1
 44
1.32052821128451
  0
TEXT
  5
18D
330
1F
100
AcDbEntity
  8
1
 62
     7
100
AcDbText
 10
50.10637501813879
 20
43.04797096053464
 30
0.0
 40
4.0
  1
2
 41
0.95
  7
CONVERTER_2
100
AcDbText
  0
TEXT
  5
18E
330
1F
100
AcDbEntity
  8
1
 62
     7
100
AcDbText
 10
-38.0568391803875
 20
69.5345612218713
 30
0.0
 40
4.0
  1
1
 41
0.95
  7
CONVERTER_2
100
AcDbText
  0
MTEXT
  5
18F
330
1F
100
AcDbEntity
  8
1
 62
     7
100
AcDbMText
 10
-1.21012798309191
 20
60.62641580956178
 30
0.0
 40
5.0
 41
0.0
 71
     7
 72
     1
  1
-10
  7
CONVERTER_1
 11
0.9993908270190958
 21
-0.03489949670250097
 31
0.0
 73
     1
 44
1.32052821128451
  0
MTEXT
  5
190
330
1F
100
AcDbEntity
  8
1
 62
     7
100
AcDbMText
 10
45.90085019298661
 20
39.23237754480332
 30
0.0
 40
5.0
 41
0.0
 71
     7
 72
     1
  1
40
  7
CONVERTER_1
 11
0.6156614753256584
 21
-0.7880107536067219
 31
0.0
 73
     1
 44
1.32052821128451
  0
MTEXT
  5
191
330
1F
100
AcDbEntity
  8
1
 62
     7
100
AcDbMText
 10
38.39088227370902
 20
46.60694856459927
 30
0.0
 40
5.0
 41
0.0
 71
     7
 72
     1
  1
30
  7
CONVERTER_1
 11
0.7431448254773942
 21
-0.6691306063588582
 31
0.0
 73
     1
 44
1.32052821128451
  0
MTEXT
  5
192
330
1F
100
AcDbEntity
  8
1
 62
     7
100
AcDbMText
 10
29.71442682326859
 20
52.56539103651379
 30
0.0
 40
5.0
 41
0.0
 71
     7
 72
     1
  1
20
  7
CONVERTER_1
 11
0.848048096156426
 21
-0.529919264233205
 31
0.0
 73
     1
 44
1.32052821128451
  0
MTEXT
  5
193
330
1F
100
AcDbEntity
  8
1
 62
     7
100
AcDbMText
 10
20.13511355002862
 20
56.92666070115516
 30
0.0
 40
5.0
 41
0.0
 71
     7
 72
     1
  1
10
  7
CONVERTER_1
 11
0.9271838545667875
 21
-0.3746065934159119
 31
0.0
 73
     1
 44
1.32052821128451
  0
MTEXT
  5
194
330
1F
100
AcDbEntity
  8
1
 62
     7
100
AcDbMText
 10
-14.20610937218703
 20
58.67890200259915
 30
0.0
 40
5.0
 41
0.0
 71
     7
 72
     1
  1
-20
  7
CONVERTER_1
 11
0.9848077530122081
 21
0.1736481776669303
 31
0.0
 73
     1
 44
1.32052821128451
  0
MTEXT
  5
195
330
1F
100
AcDbEntity
  8
1
 62
     7
100
AcDbMText
 10
-23.12806554784541
 20
55.77777407060589
 30
0.0
 40
5.0
 41
0.0
 71
     7
 72
     1
  1
40
  7
CONVERTER_1
 11
0.9396926207859084
 21
0.3420201433256689
 31
0.0
 73
     1
 44
1.32052821128451
  0
MTEXT
  5
196
330
1F
100
AcDbEntity
  8
1
 62
     7
100
AcDbMText
 10
-32.46240708537118
 20
50.91423791515132
 30
0.0
 40
5.0
 41
0.0
 71
     7
 72
     1
  1
30
  7
CONVERTER_1
 11
0.8660254037844387
 21
0.4999999999999999
 31
0.0
 73
     1
 44
1.32052821128451
  0
MTEXT
  5
197
330
1F
100
AcDbEntity
  8
1
 62
     7
100
AcDbMText
 10
-40.81039481037853
 20
44.50369840449239
 30
0.0
 40
5.0
 41
0.0
 71
     7
 72
     1
  1
20
  7
CONVERTER_1
 11
0.766044443118978
 21
0.6427876096865394
 31
0.0
 73
     1
 44
1.32052821128451
  0
MTEXT
  5
198
330
1F
100
AcDbEntity
  8
1
 62
     7
100
AcDbMText
 10
-47.91837934012874
 20
36.74093653777097
 30
0.0
 40
5.0
 41
0.0
 71
     7
 72
     1
  1
10
  7
CONVERTER_1
 11
0.6427876096865394
 21
0.766044443118978
 31
0.0
 73
     1
 44
1.32052821128451
  0
MTEXT
  5
199
330
1F
100
AcDbEntity
  8
1
 62
     7
100
AcDbMText
 10
-53.57038816149907
 20
27.86181990616033
 30
0.0
 40
5.0
 41
0.0
 71
     7
 72
     1
  1
OT
  7
CONVERTER_1
 11
0.5000000000000001
 21
0.8660254037844387
 31
0.0
 73
     1
 44
1.32052821128451
  0
MTEXT
  5
19A
330
1F
100
AcDbEntity
  8
1
 62
     7
100
AcDbMText
 10
-58.27533438559147
 20
16.07012534677673
 30
0.0
 40
5.0
 41
0.0
 71
     7
 72
     1
  1
-10
  7
CONVERTER_1
 11
0.3420201433256689
 21
0.9396926207859084
 31
0.0
 73
     1
 44
1.32052821128451
  0
MTEXT
  5
19B
330
1F
100
AcDbEntity
  8
1
 62
     7
100
AcDbMText
 10
-60.1805490936564
 20
5.70657841439461
 30
0.0
 40
5.0
 41
0.0
 71
     7
 72
     1
  1
-20
  7
CONVERTER_1
 11
0.1736481776669305
 21
0.984807753012208
 31
0.0
 73
     1
 44
1.32052821128451
  0
MTEXT
  5
19C
330
1F
100
AcDbEntity
  8
1
 62
     7
100
AcDbMText
 10
10.71118560592327
 20
54.15907346163517
 30
0.0
 40
3.5
 41
0.0
 71
     7
 72
     1
  1
2
  7
CONVERTER_2
 11
0.9781476007338057
 21
-0.2079116908177593
 31
0.0
 73
     1
 44
1.32052821128451
  0
MTEXT
  5
19D
330
1F
100
AcDbEntity
  8
1
 62
     7
100
AcDbMText
 10
-47.85956834046623
 20
27.61913450414507
 30
0.0
 40
3.5
 41
0.0
 71
     7
 72
     1
  1
1
  7
CONVERTER_2
 11
0.4999999999999999
 21
0.8660254037844387
 31
0.0
 73
     1
 44
1.32052821128451
  0
HATCH
  5
19E
330
1F
100
AcDbEntity
  8
1
  6
Continuous
 62
     7
100
AcDbHatch
 10
0.0
 20
0.0
 30
0.0
210
0.0
220
0.0
230
1.0
  2
_USER
 70
     0
 71
     1
 91
        1
 92
        1
 93
        6
 72
     1
 10
52.33783289464549
 20
50.88959862184179
 11
48.74111125034406
 21
47.41628490383427
 72
     1
 10
48.74111125034406
 20
47.41628490383427
 11
49.08844043557357
 21
47.05661500366494
 72
     1
 10
49.08844043557357
 20
47.05661500366494
 11
52.685162079875
 21
50.52992872167247
 72
     1
 10
52.685162079875
 20
50.52992872167247
 11
64.19465424507894
 21
61.64451610933985
 72
     2
 10
0.0
 20
0.0
 40
88.99999999999939
 50
43.83905658746829
 51
44.16094341253172
 73
     1
 72
     1
 10
63.84732505984943
 20
62.00418600950918
 11
52.33783289464549
 21
50.88959862184179
 97
        6
330
184
330
40
330
3A
330
39
330
38
330
3F
 75
     1
 76
     0
 52
90.00000000000001
 41
0.06
 77
     0
 78
     1
 53
90.00000000000001
 43
0.0
 44
0.0
 45
-0.06
 46
0.0
 79
     0
 98
        1
 10
0.0
 20
0.0
  0
HATCH
  5
19F
330
1F
100
AcDbEntity
  8
1
  6
Continuous
 62
     7
100
AcDbHatch
 10
0.0
 20
0.0
 30
0.0
210
0.0
220
0.0
230
1.0
  2
_USER
 70
     0
 71
     1
 91
        1
 92
        1
 93
        5
 72
     1
 10
-31.77620754459628
 20
65.72117340768303
 11
-29.58433801207322
 21
61.22717488491038
 72
     1
 10
-29.58433801207322
 20
61.22717488491038
 11
-30.03373503522279
 21
61.00798931151584
 72
     1
 10
-30.03373503522279
 20
61.00798931151584
 11
-39.23957665304567
 21
79.8827617455083
 72
     2
 10
0.0
 20
0.0
 40
88.9999999999994
 50
243.8390565874682
 51
244.1609434125318
 73
     0
 72
     1
 10
-38.790179629896
 20
80.1019473189029
 11
-31.77620754459628
 21
65.72117340768303
 97
        5
330
3D
330
3C
330
3B
330
182
330
3E
 75
     1
 76
     0
 52
90.00000000000001
 41
0.06
 77
     0
 78
     1
 53
90.00000000000001
 43
0.0
 44
0.0
 45
-0.06
 46
0.0
 79
     0
 98
        1
 10
0.0
 20
0.0
  0
HATCH
  5
1A0
330
1F
100
AcDbEntity
  8
1
  6
Continuous
 62
     7
100
AcDbHatch
 10
0.0
 20
0.0
 30
0.0
210
0.0
220
0.0
230
1.0
  2
_USER
 70
     0
 71
     1
 91
        1
 92
        1
 93
        5
 72
     1
 10
-18.99292227004164
 20
-86.94980680624975
 11
-18.01477466930783
 21
-87.15771849706751
 72
     1
 10
-18.01477466930783
 20
-87.15771849706751
 11
-14.68812361198479
 21
-71.50705576905717
 72
     1
 10
-14.68812361198479
 20
-71.50705576905717
 11
-15.17719741235169
 21
-71.4030999236483
 72
     1
 10
-15.17719741235169
 20
-71.4030999236483
 11
-15.66627121271859
 21
-71.29914407823942
 72
     1
 10
-15.66627121271859
 20
-71.29914407823942
 11
-18.99292227004164
 21
-86.94980680624975
 97
        5
330
41
330
4A
330
4B
330
48
330
49
 75
     1
 76
     0
 52
90.00000000000001
 41
0.06
 77
     0
 78
     1
 53
90.00000000000001
 43
0.0
 44
0.0
 45
-0.06
 46
0.0
 79
     0
 98
        1
 10
0.0
 20
0.0
  0
HATCH
  5
1A1
330
1F
100
AcDbEntity
  8
1
  6
Continuous
 62
     7
100
AcDbHatch
 10
0.0
 20
0.0
 30
0.0
210
0.0
220
0.0
230
1.0
  2
_USER
 70
     0
 71
     1
 91
        1
 92
        1
 93
        4
 72
     1
 10
77.32504459940327
 20
-44.06628504537565
 11
76.82504459940276
 21
-44.93231044915979
 72
     1
 10
76.82504459940276
 20
-44.93231044915979
 11
62.96837153865955
 21
-36.93215652746707
 72
     1
 10
62.96837153865955
 20
-36.93215652746707
 11
63.46837153865955
 21
-36.06613112368264
 72
     1
 10
63.46837153865955
 20
-36.06613112368264
 11
77.32504459940327
 21
-44.06628504537565
 97
        4
330
44
330
47
330
46
330
45
 75
     1
 76
     0
 52
90.00000000000001
 41
0.06
 77
     0
 78
     1
 53
90.00000000000001
 43
0.0
 44
0.0
 45
-0.06
 46
0.0
 79
     0
 98
        1
 10
0.0
 20
0.0
  0
ENDSEC
  0
SECTION
  2
OBJECTS
  0
DICTIONARY
  5
C
330
0
100
AcDbDictionary
281
     1
  3
ACAD_GROUP
350
D
  3
ACAD_LAYOUT
350
1A
  3
ACAD_MLINESTYLE
350
17
  3
ACAD_PLOTSETTINGS
350
19
  3
ACAD_PLOTSTYLENAME
350
E
  3
ACAD_TABLESTYLE
350
2A
  3
AcDbVariableDictionary
350
2C
  0
DICTIONARY
  5
D
102
{ACAD_REACTORS
330
C
102
}
330
C
100
AcDbDictionary
281
     1
  0
DICTIONARY
  5
1A
102
{ACAD_REACTORS
330
C
102
}
330
C
100
AcDbDictionary
281
     1
  3
Layout1
350
1E
  3
Layout2
350
26
  3
Model
350
22
  0
DICTIONARY
  5
17
102
{ACAD_REACTORS
330
C
102
}
330
C
100
AcDbDictionary
281
     1
  3
Standard
350
18
  0
DICTIONARY
  5
19
102
{ACAD_REACTORS
330
C
102
}
330
C
100
AcDbDictionary
281
     1
  0
ACDBDICTIONARYWDFLT
  5
E
102
{ACAD_REACTORS
330
C
102
}
330
C
100
AcDbDictionary
281
     1
  3
Normal
350
F
100
AcDbDictionaryWithDefault
340
F
  0
DICTIONARY
  5
2A
102
{ACAD_REACTORS
330
C
102
}
330
C
100
AcDbDictionary
281
     1
  3
Standard
350
2B
  0
DICTIONARY
  5
2C
102
{ACAD_REACTORS
330
C
102
}
330
C
100
AcDbDictionary
281
     1
  3
CTABLESTYLE
350
2D
  0
LAYOUT
  5
1E
102
{ACAD_REACTORS
330
1A
102
}
330
1A
100
AcDbPlotSettings
  1

  2

  4

  6

 40
0.0
 41
0.0
 42
0.0
 43
0.0
 44
0.0
 45
0.0
 46
0.0
 47
0.0
 48
0.0
 49
0.0
140
0.0
141
0.0
142
1.0
143
1.0
 70
   688
 72
     0
 73
     0
 74
     5
  7

 75
    16
147
1.0
148
0.0
149
0.0
100
AcDbLayout
  1
Layout1
 70
     1
 71
     1
 10
0.0
 20
0.0
 11
12.0
 21
9.0
 12
0.0
 22
0.0
 32
0.0
 14
1.00000000000000E+20
 24
1.00000000000000E+20
 34
1.00000000000000E+20
 15
-1.00000000000000E+20
 25
-1.00000000000000E+20
 35
-1.00000000000000E+20
146
0.0
 13
0.0
 23
0.0
 33
0.0
 16
1.0
 26
0.0
 36
0.0
 17
0.0
 27
1.0
 37
0.0
 76
     0
330
1B
  0
LAYOUT
  5
26
102
{ACAD_REACTORS
330
1A
102
}
330
1A
100
AcDbPlotSettings
  1

  2

  4

  6

 40
0.0
 41
0.0
 42
0.0
 43
0.0
 44
0.0
 45
0.0
 46
0.0
 47
0.0
 48
0.0
 49
0.0
140
0.0
141
0.0
142
1.0
143
1.0
 70
   688
 72
     0
 73
     0
 74
     5
  7

 75
    16
147
1.0
148
0.0
149
0.0
100
AcDbLayout
  1
Layout2
 70
     1
 71
     2
 10
0.0
 20
0.0
 11
0.0
 21
0.0
 12
0.0
 22
0.0
 32
0.0
 14
0.0
 24
0.0
 34
0.0
 15
0.0
 25
0.0
 35
0.0
146
0.0
 13
0.0
 23
0.0
 33
0.0
 16
1.0
 26
0.0
 36
0.0
 17
0.0
 27
1.0
 37
0.0
 76
     0
330
23
  0
LAYOUT
  5
22
102
{ACAD_REACTORS
330
1A
102
}
330
1A
100
AcDbPlotSettings
  1

  2

  4

  6

 40
0.0
 41
0.0
 42
0.0
 43
0.0
 44
0.0
 45
0.0
 46
0.0
 47
0.0
 48
0.0
 49
0.0
140
0.0
141
0.0
142
1.0
143
1.0
 70
  1712
 72
     0
 73
     0
 74
     0
  7

 75
     0
147
1.0
148
0.0
149
0.0
100
AcDbLayout
  1
Model
 70
     1
 71
     0
 10
0.0
 20
0.0
 11
0.0
 21
0.0
 12
0.0
 22
0.0
 32
0.0
 14
-89.0
 24
-89.0
 34
0.0
 15
89.0
 25
89.00000000000001
 35
0.0
146
0.0
 13
0.0
 23
0.0
 33
0.0
 16
1.0
 26
0.0
 36
0.0
 17
0.0
 27
1.0
 37
0.0
 76
     0
330
1F
  0
MLINESTYLE
  5
18
102
{ACAD_REACTORS
330
17
102
}
330
17
100
AcDbMlineStyle
  2
Standard
 70
     0
  3

 62
   256
 51
90.0
 52
90.0
 71
     2
 49
0.5
 62
   256
  6
BYLAYER
 49
-0.5
 62
   256
  6
BYLAYER
  0
ACDBPLACEHOLDER
  5
F
102
{ACAD_REACTORS
330
E
102
}
330
E
  0
TABLESTYLE
  5
2B
102
{ACAD_REACTORS
330
2A
102
}
330
2A
100
AcDbTableStyle
  3
Standard
 70
     0
 71
     0
 40
0.06
 41
0.06
280
     0
281
     0
  7
Standard
140
0.18
170
     2
 62
     0
 63
     7
283
     0
274
    -2
284
     1
 64
     0
275
    -2
285
     1
 65
     0
276
    -2
286
     1
 66
     0
277
    -2
287
     1
 67
     0
278
    -2
288
     1
 68
     0
279
    -2
289
     1
 69
     0
  7
Standard
140
0.25
170
     5
 62
     0
 63
     7
283
     0
274
    -2
284
     1
 64
     0
275
    -2
285
     1
 65
     0
276
    -2
286
     1
 66
     0
277
    -2
287
     1
 67
     0
278
    -2
288
     1
 68
     0
279
    -2
289
     1
 69
     0
  7
Standard
140
0.18
170
     5
 62
     0
 63
     7
283
     0
274
    -2
284
     1
 64
     0
275
    -2
285
     1
 65
     0
276
    -2
286
     1
 66
     0
277
    -2
287
     1
 67
     0
278
    -2
288
     1
 68
     0
279
    -2
289
     1
 69
     0
  0
DICTIONARYVAR
  5
2D
102
{ACAD_REACTORS
330
2C
102
}
330
2C
100
DictionaryVariables
280
     0
  1
Standard
  0
ENDSEC
  0
EOF
